Guitaretab - guitar tabs
Song name
# A B C D E F G H I J K L M N O P Q R S T U V W X Y Z

Tsunami Bomb - A Lonely Chord tab

-------------------------------------------------------------------------------
			  A Lonely Chord - Tsunami Bomb
-------------------------------------------------------------------------------
Tabbed by: Mike Cassidy
Email: rageandlove04@yahoo.com

Pretty cool, easy song from the Definitive Act.  I didn't write out the exact 
rhythms for all the song, so you'll have to listen to it to figure it out.
Nothing's too complicated.  Feel free to email me with questions/comments,
whatever.  Have fun

Tuning: Standard

Intro part 1:

   C#5   (hi hat fill) x4
e|---------------------|
B|---------------------|
G|-6-6-6-6-------------|
D|-6-6-6-6-------------|  
A|-4-4-4-4-------------|
E|---------------------|

Intro part 2:
   Asus2   B x3
e|-----0-0---|-----------------------|
B|-----0-0-4-|-----------------------|
G|-2-2-2-2-4-|-2-4-6---6-6-6-6-6-6-6-|
D|-2-2-----4-|-x-x-x---x-x-x-x-x-x-x-|
A|-0-0-----2-|-0-2-4---4-4-4-4-4-4-4-|
E|-----------|-----------------------|

Verse 1:
   C#5                                 A5
e|---------4-4-4-4-4---------4-4-4-4-4---------7-7-7-7-7---------7-7-7-7-7-|
B|---------5-5-5-5-5---------5-5-5-5-5---------5-5-5-5-5---------5-5-5-5-5-|
G|-6-6-6-6-6-6-6-6-6-6-6-6-6-6-6-6-6-6---------6-6-6-6-6---------6-6-6-6-6-|
D|-6-6-6-6-----------6-6-6-6-----------7-7-7-7-----------7-7-7-7-----------|
A|-4-4-4-4-----------4-4-4-4-----------7-7-7-7-----------7-7-7-7-----------|
E|-------------------------------------5-5-5-5-----------5-5-5-5-----------|

   C#5                                 A5                       (hold chord)
e|---------4-4-4-4-4---------4-4-4-4-4---------7-7-7-7-7-------------------|
B|---------5-5-5-5-5---------5-5-5-5-5---------5-5-5-5-5-------------------|
G|-6-6-6-6-6-6-6-6-6-6-6-6-6-6-6-6-6-6---------6-6-6-6-6-------------------|
D|-6-6-6-6-----------6-6-6-6-----------7-7-7-7-----------7-7-7-7-----------|
A|-4-4-4-4-----------4-4-4-4-----------7-7-7-7-----------7-7-7-7-----------|
E|-------------------------------------5-5-5-5-----------5-5-5-5-----------|


I never thought it mattered, never thought it mattered so much to me 
exactly where I put my feet, I was wrong. 
I drink a strong cup of coffee. A long time ago, I had a home. 
A corner where I could be alone. 

Chorus:  

It sounds like there are two guitars here, one is playing chords, the other 
doing octaves, i'll write out both ways, both sound almost the same, but just
for the hell of it, you can play either and it will work.  Listen to the song for 
the strumming.

Guitar 1
   E5   A5   B5   C#5  G#5
e|--------------------------|
B|--------------------------|
G|------2----4----6---------|
D|-2----2----4----6----6----|
A|-2----0----2----4----6----|
E|-0-------------------4----|

Guitar 2
   E    A    B    C#   G#
e|--------------------------|
B|--------------------------|
G|-9----2----4----6---------|
D|-x----x----x----x----6----|
A|-7----0----2----4----x----|
E|---------------------4----|
[ Tab from: http://www.guitaretab.com/t/tsunami-bomb/60878.html ]
       E5           A5             B5        C#5
So goodbye my solid ground. I'm an engine, I won't break down.
         E5              A5 
A lonely chord without a song,
          B5           C#5 G#5 A5
searching for an orchestration where I belong.  
  
Verse 2:

Play this riff under the first line:

                             x4, 3rd time vocals come in 
e|-------0------------0-----|
B|-----0------------0---0---|
G|-4h6----------4h6-------2-|
D|--------------------------|
A|--------------------------|
E|--------------------------|

Where will I hang up my raincoat when this day is over?


And then this under the rest of the verse:
   C#5                A5                C#5             A5     (hold chord)
e|---------4-4-4-4-4----------7-7-7-7-7---------4-4-4-4-------------------|
B|---------5-5-5-5-5----------5-5-5-5-5---------5-5-5-5-------------------|
G|-6-6-6-6-6-6-6-6-6----------6-6-6-6-6-6-6-6-6-6-6-6-6-------------------|
D|-6-6-6-6------------7-7-7-7-----------6-6-6-6---------7-7-7-7-----------|
A|-4-4-4-4------------7-7-7-7-----------4-4-4-4---------7-7-7-7-----------|
E|--------------------5-5-5-5---------------------------5-5-5-5-----------|

Like a leaf without a tree, nothing to cover over me. 
I'm like a character from a story, I don't exist.

CHORUS

Bridge:
   Asus2                       E                G#5
e|-0-0-0--0-0-0--0-0-0--0-0-0--0-0-0-0-0-0-0-0------------------|
B|-0-0-0--0-0-0--0-0-0--0-0-0--0-0-0-0-0-0-0-0------------------|
G|-2-2-2--2-2-2--2-2-2--2-2-2--1-1-1-1-1-1-1-1------------------|
D|-2-2-2--2-2-2--2-2-2--2-2-2--2-2-2-2-2-2-2-2--6-6-6-6-6-6-6-6-|
A|-0-0-0--0-0-0--0-0-0--0-0-0--2-2-2-2-2-2-2-2--6-6-6-6-6-6-6-6-|
E|-----------------------------0-0-0-0-0-0-0-0--4-4-4-4-4-4-4-4-|
   C#5                         E                G#5
e|-----------------------------0-0-0-0-0-0-0-0------------------|
B|-----------------------------0-0-0-0-0-0-0-0------------------|
G|-6-6-6--6-6-6--6-6-6--6-6-6--1-1-1-1-1-1-1-1------------------|
D|-6-6-6--6-6-6--6-6-6--6-6-6--2-2-2-2-2-2-2-2--6-6-6-6-6-6-6-6-|
A|-4-4-4--4-4-4--4-4-4--4-4-4--2-2-2-2-2-2-2-2--6-6-6-6-6-6-6-6-|
E|-----------------------------0-0-0-0-0-0-0-0--4-4-4-4-4-4-4-4-|

(listen to the song for the rhythm)
   E5                G#5               A5
e|--------------------------------------------------------------|
B|--------------------------------------------------------------|
G|--------------------------------------------------------------|
D|-2-----------------6-----------------7------------------------|
A|-2-----------------6-----------------7------------------------|
E|-0-----------------4-----------------5------------------------|
I owe a lot to these kids who are like family. They've helped me 
   out with their    endless       generosity.

Play INTRO here

Chorus x2 

Outro:
   C#5 G#5 A5
e|------------|
B|------------|
G|-6----------|
D|-6---6---7--|
A|-4---6---7--|
E|-----4---5--|
| /  slide up
| \  slide down
| h  hammer-on
| p  pull-off
| ~  vibrato
| +  harmonic
| x  Mute note
===============================================================================
Related for A Lonely Chord tab