Song name
# A B C D E F G H I J K L M N O P Q R S T U V W X Y Z

Tsuneo Imahori - Hard Target tab

               The Theme from Trigun: H.T. ( Hard Target ) by Tsuneo Imahori
 |----------------------------------------------------------------------------------------|

                                          Part A

e|----------------------------------------------------------------------------------------|
B|----------------------------------------------------------------------------------------|
G|----------------------------------------------------------------------------------------|
D|----------------------------------------------------------------------------7-7---------| A.1
A|-----------------------3-----------------3--------------------3------3------5-5---------|
E|--0--3--4--5--3--4--5-----5--4--3--4--5-----3--4--5--3--4--5------5-----5---------------|

e|----------------------------------------------------------------------------------------|
B|----------------------------------------------------------------------------------------|
G|----------------------------------------------------------------------------------------|
D|----------------------------------------------------------------------------------------| A.2
A|-----------------------3-----------------3--------------------3------3-----3------------|
E|--0--3--4--5--3--4--5-----5--4--3--4--5-----3--4--5--3--4--5------5-----5-----5--3--5---|

                                          Part B

e|----------------------------------------------------------------------------------------|
B|----------------------------------------------------------------------------------------|
G|-----------------------5-----------------5--------------------5------5------------------|
D|--0--5--6--7--5--6--7-----7--6--5--6--7-----5--6--7--5--6--7------7-----7---7-7---------| B.1
A|----------------------------------------------------------------------------5-5---------|
E|----------------------------------------------------------------------------------------|

e|----------------------------------------------------------------------------------------|
B|----------------------------------------------------------------------------------------|
G|-----------------------5-----------------5--------------------5------5------------------|
D|--0--5--6--7--5--6--7-----7--6--5--6--7-----5--6--7--5--6--7------7-----7---7-7---------| B.1
A|----------------------------------------------------------------------------5-5---------|
E|----------------------------------------------------------------------------------------|

e|----------------------------------------------------------------------------------------|
B|----------------------------------------------------------------------------------------|
G|-----------------------5-----------------5--------------------5------5-----5------------|
D|--0--5--6--7--5--6--7-----7--6--5--6--7-----5--6--7--5--6--7------7-----7-----7-5-7575..| B.2
A|----------------------------------------------------------------------------------------|
E|----------------------------------------------------------------------------------------|

                                          Part C
                                                              MINI SOLO
e|------------------------------------------|---------------------------------------------|
B|------------------------------------------|---------------------------------------------|
G|-----5--7---7--5---------5--7-------------|------7^7-5--7^7-5-----------5---------------|
D|--7--5--7---7--5--7---7--5--7-------------|--------------------5--6--7------------------| C.1
A|--7---------------7---7-------------------|-------------------------------7--6--5-------|
E|------------------------------------------|---------------------------------------8-----|

                                          Part D

e|----------------------------------------------------------------------------------------|
B|----------------------------------------------------------------------------------------|
G|--7---5--6--7---5--6--7--5----------5--6--7---5--6--7---5--6--7-6---7-6-----------------|
D|--7---5--6--7---5--6--7----7-----7--5--6--7---5--6--7---5--6--7-6---7-6-----------------| D.1
A|------------------------------5---------------------------------------------------------|
E|----------------------------------------------------------------------------------------|

e|----------------------------------------------------------------------------------------|
B|----------------------------------------------------------------------------------------|
G|--7---5--6--7---5--6--7--5----------5--6--7---5--6--7---5--6--7-6---7-6-----------------|
D|--7---5--6--7---5--6--7----7-----7--5--6--7---5--6--7---5--6--7-6---7-6-----------------| D.1
A|------------------------------5---------------------------------------------------------|
E|----------------------------------------------------------------------------------------|

e|----------------------------------------------------------------------------------------|
B|----------------------------------------------------------------------------------------|
G|--7---5--6--7---5--6--7--5----------5--6--7---5--6--7---5--6--7-6---7-6-----------------|
D|--7---5--6--7---5--6--7----7-----7--5--6--7---5--6--7---5--6--7-6---7-6-----------------| D.1
A|------------------------------5---------------------------------------------------------|
E|----------------------------------------------------------------------------------------|

e|----------------------------------------------------------------------------------------|
B|----------------------------------------------------------------------------------------|
G|--9---7--8--9---7--8--9--7----------7--8--9---------------------------------------------|
D|--9---7--8--9---7--8--9----9-----9--7--8--9---------------------------------------------| D.2
A|------------------------------7---------------------------------------------------------|
E|----------------------------------------------------------------------------------------|

                                          Part E 
                                         MAIN SOLO
e|----------------------------------------------------------------------------------------|
B|--12^15-12-11-10------------------------------------------------------------------------| 
G|------------------12^15-15---------------9-8^9--9-8^9--9-8^9--9-------------------------| 
D|----------------------------14-13-12-11-------------------------------------------------| E.1
A|----------------------------------------------------------------------------------------|
E|----------------------------------------------------------------------------------------|
|

                                          Part A

e|----------------------------------------------------------------------------------------|
B|----------------------------------------------------------------------------------------|
G|----------------------------------------------------------------------------------------|
D|----------------------------------------------------------------------------7-7---------| A.1
A|-----------------------3-----------------3--------------------3------3------5-5---------|
E|--0--3--4--5--3--4--5-----5--4--3--4--5-----3--4--5--3--4--5------5-----5---------------|

e|----------------------------------------------------------------------------------------|
B|----------------------------------------------------------------------------------------|
G|----------------------------------------------------------------------------------------|
D|----------------------------------------------------------------------------------------| A.2
A|-----------------------3-----------------3--------------------3------3-----3------------|
E|--0--3--4--5--3--4--5-----5--4--3--4--5-----3--4--5--3--4--5------5-----5-----5--3--5---|

                                          Part B

e|----------------------------------------------------------------------------------------|
B|----------------------------------------------------------------------------------------|
G|-----------------------5-----------------5--------------------5------5------------------|
D|--0--5--6--7--5--6--7-----7--6--5--6--7-----5--6--7--5--6--7------7-----7---7-7---------| B.1
A|----------------------------------------------------------------------------5-5---------|
E|----------------------------------------------------------------------------------------|

e|----------------------------------------------------------------------------------------|
B|----------------------------------------------------------------------------------------|
G|-----------------------5-----------------5--------------------5------5-----5------------|
D|--0--5--6--7--5--6--7-----7--6--5--6--7-----5--6--7--5--6--7------7-----7-----7-5-7575..| B.2
A|----------------------------------------------------------------------------------------|
E|----------------------------------------------------------------------------------------|

                                          Part C
                                                              MINI SOLO
e|------------------------------------------|---------------------------------------------|
B|------------------------------------------|---------------------------------------------|
G|-----5--7---7--5---------5--7-------------|------7^7-5--7^7-5-----------5---------------|
D|--7--5--7---7--5--7---7--5--7-------------|--------------------5--6--7------------------| C.1
A|--7---------------7---7-------------------|-------------------------------7--6--5-------|
E|------------------------------------------|---------------------------------------8-----|
Tap to rate this tab
# A B C D E F G H I J K L M N O P Q R S T U V W X Y Z