Song name
# A B C D E F G H I J K L M N O P Q R S T U V W X Y Z

Tsuneo Imahori - Say It Aint So tab

-------------------------------------------------------------------------------
			     Tsuneo Imahori - Say it ain't so
-------------------------------------------------------------------------------
Tabbed by:lovelylight
Album: Gungrave OST Uno "Righthead"
Tuning:EADGBe

another beautiful song by T.I. from the Gungrave Anime
no words so gotta listen to the song 

PART 1
0:00-0:13
Keep repeating
  A
e|--5-----------5-----------------5--------------------5---------------------|
B|--------5-----------5---------------------5-----------------5--------------|
G|---------------------------------------------------------------------------|
D|---------------------------------------------------------------------------|
A|--7-----------------------------7------------------------------------------|
E|---------------------------------------------------------------------------|


PART 2
0:13-0:33
repeat as needed

  A     Repeat 2X
e|----5--------------------5-------------------------------------------------|
B|-------------5---------------5---------------------------------------------|
G|-------------------6-------------------------------------------------------|
D|----7----------------------------------------------------------------------|
A|---------------------------------------------------------------------------|
E|---------------------------------------------------------------------------|

  A   then play this the 3rd time and go back to part 2 and repeat  (0:33)
e|---5-----------------------5-------------7--------5------------------------|
B|-----------5----------------------5------------------------5---------------|
G|-------------------6--------------------------------------------------6----|
D|---7-----------------------------------------------------------------------|
A|---------------------------------------------------------------------------|
E|---------------------------------------------------------------------------|

PART 3
0:33-0:34

e|---------------------------------------------------------------------------|
B|-------------------------5-------------------------------------------------|
G|-----------------6---------------------------------------------------------|
D|--------7------------------------------------------------------------------|
A|---------------------------------------------------------------------------|
E|---------------------------------------------------------------------------|

PART 4
0:34-0:48
( D  A  Am  G)

         D                     A                  Am                   G
e|--------5--------------------5------------------5-----------------------3--|
B|----7-------7------------5------5-----------5-------5---------------3-----3|
G|----------------7--------------------6------------------5--------4---------|
D|--7------------------7-------------------7--------------------5------------|
A|------------------------------------------------------------5--------------|
E|---------------------------------------------------------------------------|


REPEAT PART 3 And 4
0:48

PART 5
0:48-1:02
  Keep repeating
  Bb
e|------------------------1--------------------------------------------------|
B|--------------3------------------3-----------------------------------------|
G|------------------------------------------3--------------------------------|
D|------3--------------------------------------------------------------------|
A|---------------------------------------------------------------------------|
E|---------------------------------------------------------------------------|

1:02-2:01
Repeat PART 2-5 as necessary

PART 6
2:01
Repeat 2X
                                    A
e|---5---------h7-------------------------------------5----------------------|
B|---5------------------------------------------------5----------------------|
G|---5--------------------------------------6--------------------------------|
D|---5-----------------------------7-----------------------------------------|
A|---------------------------------7-----------------------------------------|
E|---------------------------------------------------------------------------|

..Just keep picking an A until End..

Dont rely on this tab cause its kind of vain
use it as a foundation and listen to the song and experiment to get it
just right. thanks! 
Tap to rate this tab
# A B C D E F G H I J K L M N O P Q R S T U V W X Y Z