Song name
# A B C D E F G H I J K L M N O P Q R S T U V W X Y Z

Tsuneo Imahori - My Old Friend tab

-------------------------------------------------------------------------------
			     Tsuneo Imahori - My old Friend
-------------------------------------------------------------------------------
Tabbed by:Lovelylight
Album: Gungrave O.S.T.2 "lefthead"
Tuning: EADGBe

In my opingion this is Tsuneo Imahori's greatest work
this cute little song comes in the end of the tear-jerking anime.

CAPO ON 2ND FRET.
so when your playing ''C'' it will actually be ''D''

PART 1 REPEAT 2X
 C
       C          C          C          C          C          C          C
e|---------------------------------------------------------------------------|
B|---------------------------------------------------------------------------|
G|---------------------------------------------------------------------------|
D|----2---2---3---2---2---2---3---2---2---3---2---0---3---2---0-----2---0----|
A|-3-------------------------------------------------------------3---------3-|
E|---------------------------------------------------------------------------|

Ab   C

PART 2 0:35

                                   C
e|---------------------------------------------------------------------------|
B|-------------1-------------------------------------------------------------|
G|-----0----------------0----------------------------------------------------|
D|----------------------------------2-------------0--------------------------|
A|--------------------------------------------------------------3------------|
E|---------------------------------------------------------------------------|


then repeat PART 1 a few times again

the rest of the song is pretty much played like PART 1 except the bassoon and steel 
plays different melodies in the C scale so just experiment with that.
Tap to rate this tab
# A B C D E F G H I J K L M N O P Q R S T U V W X Y Z