Song name
# A B C D E F G H I J K L M N O P Q R S T U V W X Y Z

Tsuneo Imahori - Rakuen tab

Artist: Tsuneo Imahori
Song: Rakuen (Paradise)
from the anime series Trigun
Tuning: DADGAD

I originally learned this song using the tab by R.J. Kaufman here:
http://www.azchords.com/t/trigun-tabs-4464/rakuen-tabs-45638.html

Eventually I discovered that the song is much easier to play and sounds
more accurate if you tuned DADGAD rather than drop D tuning.  So I went
ahead and re-tabbed the song in DADGAD tuning and fixed up a few parts
that didn't sound like the original - I believe this version sounds much
closer to the original because I think it was played with this tuning.

With this version, it's also easier/more possible to play the entire song
with a pick if you want to have a clearer sound.

As you can tell, I copied the structure of the original tab and simply
modified the contents. :-)


  / - slide up
  \ - slide down
  h - hammer on
  p - pull off
  x - percussive mute, mute


Intro
|--0----0---0----0-0-0---0---0----0-0-0----0---------------------------------|
|--x----x---x----x-x-x---x---x----x-x-x----x---------------------------------|
|--0----0---0----0-0-0---0---0----0-0-0----0---------------------------------|
|--0----0---0----0-0-0---0---0----0-0-0----0---------------------------------|
|--x----x---x----x-x-x---x---x----x-x-x----x---------------------------------|
|--5----2-0-3----3/5-2---2-0-3----3\1-1----3---------------------------------|

riff A
|------------------------------------------------------0----------------------|
|--------0-2-3p2p0-------------------------------0-2-3------------------------|
|------0-----------0---------0-----0-----------0---0-----0---------0-----0----|
|----0-----4---------0-----0-----0-----0-----0-----4-------0-----0-----0-----0|
|----------------------2/3-----3-----2-----------------------2/3-----3-----2--|
|--5---------------------------------------5----------------------------------|

interlude
|----------------------------------------------------------------------------|
|----------------------------------------------------------------------------|
|-------0-----0-------0-----0-----------0-----0-------0-----0----------------|
|---0-------0---0---0---0-0---0-0---0-------0---0---0---0-0---0-0------------|
|----------------------------------------------------------------------------|
|-5---5---5-------5---------------5---5---5-------5--------------------------|

 riff B
|---------0---------------------------------------------------------------|
|-------0---0---------0-----0---------------------------------------------|
|-----0-------0-----0-----0-----0-----------------------------------------|
|---0-----4-------4-------------------------------------------------------|
|---------------3-------3-----2-------------------------------------------|
|-5-----------------------------------------------------------------------|
play riff B, 4 times

then do riff A

then repeat riff B, 3 times

then do:
riff B end variation
|-----0---0-------------0-------0-------------------------------------------|
|-----0---0-----------3-------3---------------------------------------------|
|-----0h4-0-0-------0-------0-----------------------------------------------|
|---0-----0-----2---------1-------------------------------------------------|
|---------------------------------------------------------------------------|
|-5-----5-----5-------------------------------------------------------------|
then play interlude again


 La la la riff
|---------0-----0-----0-------------------0-----0-----0-------0--------------|
|-------0-0---0---------3---2-----------0-0---0---------3--------------------|
|-----0-------------0---------0-------0-------------0-------0---0------------|
|---0-----3-3-----2-------1-----1---0-----3-3-----2-------1------------------|
|----------------------------------------------------------------------------|
|-5-------------------------------5------------------------------------------|

 la la riff continued
|---------0-----0----------------------------0-0-------------------|
|-------0-0---0-------0-----0--------------0---0----2--|--2--------|
|-----0-------------0-----0--------------0---4------0--|--0--------|
|---0-----4-4-----------4-----4-0------0-----0-0----2--|--2--------|
|-----------------3------------------------------------------------|
|-5------------------------------0h4h5------------4----------------|


interlude B
play 3 times(after first time it starts on 5, no hammer on at the start)
then go to next bar
|----------------------|
|-----------0-3-5---5--|
|---------0---0-0------|
|-------0--------------|
|----------------------|
|-0h4h5----------------|

|---------0--|
|-------0----|
|-----0------|
|---0--------|
|------------|
|-5----------|


chorus, repeat twice                            this is last measure
|-------------------------0-----------------------|--------0--------|
|-------0-------0-----------0-----------0-------0-|------0---0------|
|-----0-------0---------0-----0-------0-------0---|----0-------0----|
|---4-------4---------0---4-----4---4-------4-----|--4-----------4--|
|-3-----------------4-------------3---------------|-----------------|
|---------0-------5-----------------------0-------|2----------------|

chorus ending
|---------0------------|
|----------------------|
|-------0-0---let ring-|
|-----4----------------|
|---2------------------|
|-2--------------------|

play twice
|---------------1-----------------------------------------------------------|
|-------0-0h2---0h3-----3-----3---------------------------------------------|
|-----0---0-----------0-----0-----------------------------------------------|
|---0---------0-----3-----3-----2-0-----------------------------------------|
|---------------------------------------------------------------------------|
|-5-------------------------------------------------------------------------|

then
|---------------0-0-----2----------------0---0--------------0-------0--|
|-------0-0h2-------------3---2----------0---0------------3-------3----|
|-----0---0-----------0------------------0h4-0-0--------0-------0------|
|---0---------0-----3-------3----2-0---0-----0-----2----------1--------|
|----------------------------------------------------------------------|
|-5----------------------------------5-----5-----5---------------------|

then the song starts repeating
it goes back to:

interlude

la la la riff

chorus - repeat twice like before and then chorus ending

interlude B - 3 times then next bar like before

chorus - repeat 4 times but on 4th time skip last measure and do

riff A

and then this ending

|------------------------------------------------------0---------------0-------|
|--------0-2-3p2p0-------------------------------0-2-3-------------------0-----|
|------0-----------0---------0-----0-----------0---0-----0-------0---0-----0---|
|----0-----4---------0-----0-----0-----0-----0-----4-------0-------4---------4-|
|----------------------2/3-----3-----2-----------------------2/3---------------|
|--5---------------------------------------5-----------------------------------|

|-0---0--0------0--|
|------------------|
|-0---0--------0---|
|-0---0-------0----|
|-x---x------x-----|
|-3---1-----2------|
Tap to rate this tab
 
# A B C D E F G H I J K L M N O P Q R S T U V W X Y Z