Song name
# A B C D E F G H I J K L M N O P Q R S T U V W X Y Z

Tsutchie - 2 Messages tab

Song: 2 Messages

        By: Tsutchie

        As heard in: Samurai Champloo

        Tabbed by: Yours Truly.

If you've got anything to say, feel free to e-mail me at AnonymousofRed@live.com.

The rhythm probably isn't spot-on, but I'm sure you'll understand it.

h : hammer-on

-------1--------1------1------------1---------1------------|
-------------------4------------------------4--------------|
-----1----------------------------1------------------------|
---3----------3-----------------3---------3----------------|
-4----------3---------------1h2---------1------------------|
-----------------------------------------------------------|

(03:03)
-1----------1----------1---------1-------------------------|
-4----------4----------4---------4-------------------------|
-1----------1----------1---------1-------------------------|
-3----------3----------3---------3-------------------------|
-4----------3----------2---------1-------------------------|
-----------------------------------------------------------|
Tap to rate this tab
# A B C D E F G H I J K L M N O P Q R S T U V W X Y Z