Song name
# A B C D E F G H I J K L M N O P Q R S T U V W X Y Z

Tuatara - Goodnight La Hababa tab

#----------------------------------PLEASE NOTE--------------------------------#
#This file is the author's own work and represents their interpretation of the#
#song. You may only use this file for private study, scholarship, or research.#
#-----------------------------------------------------------------------------#

Date: Sat, 21 Mar 1998 16:01:14 -0500
From: Helms 
Subject: t/tuatara/goodnight_la_hababa.crd

"Goodnight La Habana" instrumental
by Barret Martin and Justin Harwood
as recorded by Tuatara on "Breaking the Ethers"
transcribed by Bjart

The intro introduction and verse chord progression
 is just two cords: C and Db

The verse melody seems to be played in the Wes Montgomery
style:

E----------|---------|------|------|
B---8-6----|---------|------|-6-4--|
G-5------8-|-7--3-5--|-7-8--|------|
D---5-3----|---------|------|-3-1--|
A-3------6-|-5--1-3--|-5-6--|------|
E----------|---------|------|------|

E----------|---------|------|------|
B---8-6----|---------|------|-6-8--|
G-5------8-|-7--3-5--|-7-8--|------|
D---5-3----|---------|------|-3-5--|
A-3------6-|-5--1-3--|-5-6--|------|
E----------|---------|------|------|

Then for the chorus, repeat Eb and E.

The interlude between solos is just F and Eb.

Thats all there is to it, repeat until your done or
your fingers fall off. Enjoy!
Tap to rate this tab
# A B C D E F G H I J K L M N O P Q R S T U V W X Y Z