Song name
# A B C D E F G H I J K L M N O P Q R S T U V W X Y Z

Tuatha De Danann - Believe Its True tab

Info - THIS ARE THE LEAD PART

B-bend
R-release
P.M - palm mute
T-tap
~-Vibration

E-----------------------------------|
B-----------------------------------|
G------------------5-5-5-5-4-4-4-4--|
D-7-7-7-7-5-5-5-5-------------------|
A-------------------3-3-3-3-2-2-2-2-|
E--5-5-5-5-3-3-3-3------------------|

X2

1st&2nd verse:

E------------------------------------------------|
B-----------------------------------3h5-3--3h5-3-|
G-2-0-2-4-5-4-2-x-0-0-2-4-2-0--5-0-5-----5-------|
D-----------------------------------------0------|
A------------------------------------------------|
E------------------------------------------------|

Intrelude:

E--------------------------------------------3-33-------|
B-6-6-66-5-3-5---------------------6-66-5-3-------6-5-3-|
G-------------5555-4-2-0--00-2-4-5---------5------------|
D-------------------------------------------------------|
A-------------------------------------------------------|
E-------------------------------------------------------|

E--------------------------------------------3-33-------|
B-6-6-66-5-3-5---------------------6-66-5-3-------6-5---|
G-------------5555-4-2-0--00-2-4-5---------5----------7-|
D-----------------------------------------------------7-|
A-----------------------------------------------------5-|
E-------------------------------------------------------|

Pre-chorus:

E---------------------------------------------|
B----------------------------3-3h5-3--3-3h5-3-|
G-2-0-2-4-5-4-2-0-4-0--5-0-5---------5--------|
D---------------------------------------------|
A---------------------------------------------|
E---------------------------------------------|

E---------------------------------------------|
B----------------------------3-3h5-3--3-3h5-3-|
G-2-0-2-4-5-4-2-0-2-0--5-0-5---------5--------|
D---------------------------------------------|
A---------------------------------------------|
E---------------------------------------------|

Chorus:

E--------5-3-------------------------5-3--------------|
B-5-3-------6--5-3-------------5-3-----6-5-3----------|
G-----5-------------5-4--5-4-2-----5---------5-4--5-4-|
D-----------------------------------------------------|
A-----------------------------------------------------|
E-----------------------------------------------------|

3rd verse:
   P.M P.M P.M P.M       P.M P.M P.M P.M
E---------------------------------------------|
B---------------------------------------------|
G---------------------------------------------|
D--------------------5---5-55-55-55-5------5--|
A--7-77-77-77-75-55--5---3-33-33-33-35-55--5--|
E--5-55-55-55-53-33--3---------------3-33--3--|

   P.M P.M P.M P.M       P.M P.M P.M P.M
E---------------------------------------------|
B---------------------------------------------|
G---------------------------------------------|
D--------------------5---5-55-55-55-5------5--|
A--7-77-77-77-75-55--5---3-33-33-33-35-55--5--|
E--5-55-55-55-53-33--3---------------3-33--3--|


Chorus:
                               Believe..    Old green..
E-----------5-3-----------------------------5-3----------------|
B-----5-3-------6--5-3----------------5-3-------6-5-3----------|
G-7-7-----5------------5-4-----5-4-2------5-----------5-4--5-4-|
D-7-7----------------------------------------------------------|
A-5-5----------------------------------------------------------|
E--------------------------------------------------------------|


"Solo"

   P.M  P.M      P.M P.M P.M     P.M   P.M                  P.M
E--------------------------------------------------------------------|
B--------------5----------------------5---5-6-8-6-5-6-5--------------|
G------5---5-7---------------4-5--5-7---7---------------7-5----------|
D--5-7---7-------7777-5-55-7--------------------------------77777-5--|
A--------------------------------------------------------------------|
E--------------------------------------------------------------------|
   P.M  P.M      P.M P.M P.M     P.M   P.M                  P.M
E--------------------------------------------------------------------|
B--------------5----------------------5---5-6-8-6-5-6-5--------------|
G------5---5-7---------------4-5--5-7---7---------------7-5----------|
D--5-7---7-------7777-5-55-7--------------------------------77777-5--|
A--------------------------------------------------------------------|
E--------------------------------------------------------------------|

   P.M  P.M       P.M P.M P.M                                 P.M
E---------------5-----------------------5---5-6-8-6-5-6-5--------------|
B------6----6-8---------------5-6~--6-8---8---------------8-6----------|
G--5-7---7--------77777-55557---------------------------------77777-5~-|
D----------------------------------------------------------------------|
A----------------------------------------------------------------------|
E----------------------------------------------------------------------|

E------------------------------------------------|
B-------------------------5--5--5--5---5---------|
G-2-0-2-4-5-4-2-0-4b-0--7b-7b-7b-7b--7b--7r-7-5~-|
D------------------------------------------------|
A------------------------------------------------|
E------------------------------------------------|

E------------------------------------------------------|
B-5-0-5-6-6-8--6-5-6-6h8--6~----5--5--5--5---5---------|
G-----------------------------7b-7b-7b-7b--7b--7r-7-5~-|
D------------------------------------------------------|
A------------------------------------------------------|
E------------------------------------------------------|

FLUTE INTRELUDE

And then guitar intrelude

E--------7-----------7-----------7-----------7-----------7-----------7---|
B-10-7----7---10-7----7---10-7----7---10-7----7---10-7----7---10-7----7--|
G------7---7-------7---7-------7---7-------7---7-------7---7-------7---7-|
D------------------------------------------------------------------------|
A------------------------------------------------------------------------|
E------------------------------------------------------------------------|

E--------------------------------------------------------------|
B---------------8888---------------------------8888------------|
G-9-----9------------9-7-9-------9-----9------------9-7-9------|
D--77777-77777------------77777---77777-77777------------77777-|
A--------------------------------------------------------------|
E--------------------------------------------------------------|

E--------------------------------------------------------------|
B---------------8888---------------------------8888------------|
G-9-----9------------9-7-9-------9-----9------------9-7-9------|
D--77777-77777------------77777---77777-77777------------77777-|
A--------------------------------------------------------------|
E--------------------------------------------------------------|

Couldn't tab the next solo, SORRY

Last Verse:


E---------------------------------------------|
B---------------------------------------------|
G--------------------5------------------------|
D--7--------5--------5--------5--5555555555---|
A--7--------5--------3--------5--5555555555---|
E--5--------3-----------------3--3333333333---|

   P.M P.M P.M P.M       P.M P.M P.M P.M
E---------------------------------------------|
B---------------------------------------------|
G---------------------------------------------|
D--------------------5---5-55-55-55-5------5--|
A--7-77-77-77-75-55--5---3-33-33-33-35-55--5--|
E--5-55-55-55-53-33--3---------------3-33--3--|

Chorus:
                               Believe..    Old green..
E-----------5-3-----------------------------5-3----------------|
B-----5-3-------6--5-3----------------5-3-------6-5-3----------|
G-7-7-----5------------5-4-----5-4-2------5-----------5-4--5-4-|
D-7-7----------------------------------------------------------|
A-5-5----------------------------------------------------------|
E--------------------------------------------------------------|

E--------------------------------------------------------------|
B---------------8888---------------------------8888------------|
G-9-----9------------9-7-9-------9-----9------------9-7-9------|
D--77777-77777------------77777---77777-77777------------77777-|
A--------------------------------------------------------------|
E--------------------------------------------------------------|

E--------------------------------------------------------------|
B---------------8888---------------------------8888------------|
G-9-----9------------9-7-9-------9-----9------------9-7-9------|
D--77777-77777------------77777---77777-77777------------77777-|
A--------------------------------------------------------------|
E--------------------------------------------------------------|

E--------7-----------7-----------7-----------7----10p7-10p7-10p7-10p7--|
B-10-7----7---10-7----7---10-7----7---10-7----7-------7----7----7----7-|
G------7---7-------7---7-------7---7-------7---7-----------------------|
D----------------------------------------------------------------------|
A----------------------------------------------------------------------|
E----------------------------------------------------------------------|

E------------------------|
B---------------8888-----|
G-9-----9------------9-7-|
D--77777-77777-----------|   Bass intrelude
A------------------------|
E------------------------|

Last solo, tapping part only one string
        t       t       t       t       t       t       t       t
E-8-10-15-8-10-15-8-10-15-8-10-15-8-10-15-8-10-15-8-10-15-8-10-15
        t         t        t        t        t        t        t
E-10-12-17-10-12-17-10-12-17-10-12-17-10-12-17-10-12-17-10-12-17
        t         t        t        t        t        t        t
E-12-15-20-12-15-20-12-15-20-12-15-20-12-15-20-12-15-20-12-15-20
        t         t        t        t        t        t
E-12-15-20-12-15-20-12-15-20-12-15-20-12-15-20-12-15-20-12

E------------------------------------------------------------------------|
B-----------------------------------------15b--15-13--13--15b--15-13--15-|
G-7b-7b-7r-5~--0-2-5~--7b-7br-5~-55555555-----------14--------------14---|
D------------------------------------------------------------------------|
A------------------------------------------------------------------------|
E------------------------------------------------------------------------|

E-------------------------------------------------------------------------|
B-------------------------------------------------------------------------|
G--7-5-7-5-7-5-7-5-7-5-7-5-7-5-7-4-5-4-5-4-5-4-5-4-5-2-4-2-4-2-4-2-4-2----|
D----------------------------------------------------------------------5b-|
A-------------------------------------------------------------------------|
E-------------------------------------------------------------------------|

E------------------------------------------------|
B-------------------------5--5--5--5---5---------|
G-2-0-2-4-5-4-2-0-4b-0--7b-7b-7b-7b--7b--7r-7-5~-|
D------------------------------------------------|
A------------------------------------------------|
E------------------------------------------------|

E------------------------------------------------------|
B-5-0-5-6-6-8--6-5-6-6h8--6~----5--5--5--5---5---------|
G-----------------------------7b-7b-7b-7b--7b--7r-7-5~-|
D------------------------------------------------------|
A------------------------------------------------------|
E------------------------------------------------------|

Fade out..

Enjoy, Eldad

Tuatha official site -> http://www.tuathadedanann.com.br/
Tap to rate this tab
# A B C D E F G H I J K L M N O P Q R S T U V W X Y Z