Guitaretab - guitar tabs
Song name
# A B C D E F G H I J K L M N O P Q R S T U V W X Y Z

Tuatha De Danann - Finganforn tab

Highlighted       Show chord diagrams
Intro: G ...
(Am C G/B)3x
 Am C G/B D C G/B Am

Am
This is your friend!
C    G/B  Am
(Finganforn!)
Am
He lives on the hills!
C    G/B   Am
(Finganforn!)
Am
to where we go tonight!
C    G/B     D C   G/B  Am
(Finganforn!) (Finganforn!)

Am           E
Comming to your home
G        C   G/B  Am
Comming to your Home!
Am              E
drinking into the night
G           C  G/B  Am
drinking into the night!

-nada-
Is your friend the Finganforn?!
C   G/B   Am
(Finganforn!)
Am
He lives on the hills!
C   G/B   Am
(Finganforn!)
Am
to where we go tonight!
C   G/B      D C   G/B  Am
(Finganforn!) (Finganforn!)

Am           E
Comming to your home
G        C  G/B  Am
Comming to your Home!
Am              E
drinking into the night
G          C   G/B   Am
drinking into the night!

Lets go! To the magic palace of Finganforn!
[ Tab from: http://www.guitaretab.com/t/tuatha-de-danann/73544.html ]
 (Primeira Guitarra)                                               
e|--------0---------0---------|--------0---------0---------
B|-0--1-----0--1-----0--------|-0--1-----0--1--------3--0--0  2x
G|-----------------------0--0-|-----------------------------

 (Segunda Guitarra)

A|---0--3--7--0--3--7--2-----|---0--3--7--0--3--7--5--2--2--  2x
E|-----------------------3--3|------------------------------   

    (Base do Solo de Violino)
A5 G5 A5 G5 A5 G5 A5 G5 A5  2x

            (Solo de Violino)

B|---10---10-8-----------------------------------|---10---10-8----
G|-9-----------7-9---12-11-9-11-9----9-----------|-9-----------7-9   2x
D|--------------------------------12---12-10-7-7-|----------------

A5             
Coming to your home
E5
Drinking into the night
G5                C5
Walking on the stars
   G5        A5
Under moonlight
A5
This is your friend
E5
This is Finganforn
G5 C5  G5 A5
O

C5  G5  D5 A5
FIN-GAN-FORN
C5 G5  A5
FINGANFORN
C5  G5  D5 A5 
FIN-GAN-FORN
C5 G5  A5
FINGANFORN

 A5 G5 A5 G5 A5 G5 A5 G5 A5  2x
Related for Finganforn tab