Song name
# A B C D E F G H I J K L M N O P Q R S T U V W X Y Z

Tub Ring - When The Crash Happened tab

Help us improve GuitareTab! Take a short survey!
When the Crash Happened
Tub Ring

Guitar tabbed out by Randy Meuse: www.myspace.com/dybew

Nice easy guitar song. Only three main parts. Simple and effective.


Verse (00:00):

e --------------------------------------|
B --------------------------------------|
G --------------------9--9--9--9--9--10-|
D 9--9--9--9--9--11---9--9--9--9--9--10-|
A 9--9--9--9--9--11---7--7--7--7--7--8--|
E 6--6--6--6--6--9----------------------|


e -------------------------------------|
B -------------------------------------|
G -------------------------------------|
D 10-10-10-10-10-----10-10-10-10-10----|
A 10-10-10-10-10-----10-10-10-10-10----|
E 8--8--8--8--8------8--8--8--8--8-----|


Chorus (00:20):


e --------------|
B --------------|
G ---6--5--2----|
D 9--6--5--2--3-|
A 9--4--3--0--3-|
E 6-----------1-|

Screaming Part (00:59):


e ------------------------------------------------|
B ------------------------------------------------|
G ------------------------------------------------|
D 9--9--9--9--11-11-11-11-10-10-10-10--3--3--3--3-|
A 9--9--9--9--11-11-11-11-10-10-10-10--3--3--3--3-|
E 6--6--6--6--9--9--9--9--8--8--8--8---1--1--1--1-|

G ------------10-10-10-10--9--9--9--9--5--5--5--5-|
D 9--9--9--9--10-10-10-10--9--9--9--9--5--5--5--5-|
A 9--9--9--9--8--8--8--8---7--7--7--7--3--3--3--3-|
E 6--6--6--6--------------------------------------|

There you go.
Related for When The Crash Happened tab