Song name
# A B C D E F G H I J K L M N O P Q R S T U V W X Y Z

Tubelord - Night Of The Pencils tab

Night of the Pencils – Tubelord

Tuning is drop D

MAIN RIFF
e--------------------------------------------------------------------|
b--------------------------------------------------------------------|
g-------2--------------2---------------------------------------------|
d--0h2s4-4s5-5s4--0h2s4-4s5-5s4--------------------------------------|
a-------------------------------repeat-------------------------------|
D-0------4s5-5s4-0------4s5-5s4--------------------------------------|

“mavis told the truth, I'm the one for you...” (0:18)
e--------------------------------------------------------------------|
b---10---------------------------------------------------------------|
g---9---------14-----------------------------------------------------|
d--9----------12-----------------------------------------------------|
a-----------12-------------------------------------------------------|
D-9-------12---------------------------------------------------------|

then go back to the intro riff, then, with distortion and strummed:

e--------------------------------------------------------------------|
b-10-10-101010-------------------------------------------------------|
g-9--9--9-9-9-----14-14-141414----9--9--9-9-9---4--4--4-4-4----------|
d-9--9--9-9-9--x2-12-12-121212-x2-9--9--9-9-9---4--4--4-4-4----------|
a-----------------12-12-121212---------------------------------------|
D-9--9--9-9-9-----12-12-121212----9--9--9-9-9---4--4--4-4-4----------|

e--------------------------------------------------------------------|
b--------------------------------------------------------------------|
g-4-4-444----7-7-777----------------------------------9s10-----------|
d-2-2-222-x2-5-5-555-x2---12-12-12--1212121212-12-12------10---------|
a-2-2-222----5-5-555------12-12-12--1212121212-12-12-----------------|
D-2-2-222----5-5-555------12-12-12--1212121212-12-12-----------------|

e--------------------------------------------------------------------|
b--------------------------------------------------------------------|
g--------------------------------------------------------------------|
d-12-12-12-1212121212-12-12---12-bend-up-to-14-here---12-121212s0----|
a-12-12-12-1212121212-12-12---12-12-12-12-12-12-12----12-121212s0----|
D-12-12-12-1212121212-12-12---12-12-12-12-12-12-12----12-121212s0----|

“...spend the rest of summer stoned” (1:10)

this part just goes through these chords, strummed, starting with the first
watch out for the sudden drop in strumming at 1:37 after the second “..nothing to moan about”

e--------------------------------------------------------------------|
b--------------------------------------------------------------------|
g-11---11--12---11---------------------------------------------------|
d-14---9---10---12---------------------------------------------------|
a-14---9---10---12---------------------------------------------------|
D-14---9---10---12---------------------------------------------------|


“we're bigger than memphis...” (1:49)

e--------------------------------------------------------------------|
b-------let-these-chords-ring----------------------------------------|
g--------------------------------------------------------------------|
d-12---14---17-----------12------------------------------------------|
a-12---14---17--x2,then--12-strummed-harder--------------------------|
D-12---14---17-----------12------------------------------------------|


do this next picked part 2 times

e--------------------------------------------------------------------|
b--------------------------------------8-----------------------------|
g-10-7--7-12---------9---7---------7---------------------------------|
d----------------7---------------5---5-------------------------------|
a------------x4------------x2------------x2--------------------------|
D-0---0---0------7---7---7-----5---5---5-----------------------------|

strum these:
I think it sounds like it's all downstrokes but that is annoying to play

e-10------8-----7----------------------------------------------------|
b-10-x16—10-x8--8-x8-------------------------------------------------|
g--------------------------------------------------------------------|
d--------------------------play-these-4-times------------------------|
a--------------------------------------------------------------------|
D--------------------------------------------------------------------|

“it's such a ride” (2:54)
these chords, strummed:
e-----------------------5---7---------------14---|---14-12--12-14----|
b-----------------------6---8---------------15---|--------15---------|
g-10---8---3------------5---7---------------14---|-------------------|
d-11---9---4------------3---5---------------12---|-------------------|
a--------------x3,then--3---5--slide-up-to--12---|-------------------|
D-12---7---5------------3---5---------------12---|-------------------|

they just strum that last chord for a while, and right before the last part of the song 
throw in that last little melody

“we're bigger than memphis...” (3:27)
follow the strumming pattern on the song

e--------------------------------------------------------------------|
b--------------------------------------------------------------------|
g--------------------------------------------------------------------|
d-12--14--17--12b14-12b14b12-----------------------------------------|
a-12--14--17--12----12-----------------------------------------------|
D-12--14--17--12----12-----------------------------------------------|

the ending of the song goes like this, but it can be tricky to catch the right beat
you don't do the bendy thing on the last chord here, just do this:
e--------------------------------------------------------------------|
b--------------------------------------------------------------------|
g--------------------------------------------------------------------|
d-12-12-12-12-1212121212p0-12--12---12-11-12-12b14-0-----------------|
a-12-12-12-12-1212121212-----9---12----0-----------0-----------------|
D-12-12-12-12-1212121212------------------12-12----0-----------------|
Tap to rate this tab
# A B C D E F G H I J K L M N O P Q R S T U V W X Y Z