Guitaretab - guitar tabs
Song name
# A B C D E F G H I J K L M N O P Q R S T U V W X Y Z

Tubes - Power Tools tab

artist-the tubes
song-power tools
album-completion backward principal
words by-Fee Waybill
guitarist-Bill Spooner and Roger Steen
tabbed by-smellslikefeet1

this song is kinda hard because the exagerated chords are kinda confusing so this is
gonna be kinda tough to understand.the exagerated chrods are the ones u can really
hear in the verse.
Ex-Exagerated chord
h-hammeron
p-pulloff
~-vabrato
s-slide to


bass part;
|-------------------|
|-------------------|
|-5-5--3-3--8-8--5-5|
|-------------------|

guitar 1 00;08 verse
|---------------------------|
|---------------------------|
|--------5----7-7-----------|
|--------3----5-5-----------|
|-5-5-3h5--5-3----3-5-------|
|---------------------------|

guitar 2 plays these chords over the first 2 notes

  D D
|-7-7--|
|-6-6--|
|-7-7--|[ Tab from: http://www.guitaretab.com/t/tubes/56023.html ]
change(pre chorus)0:42
    nobody better ask me why
|--------------------------------------------------------|
|--------------------------------------------------------|
|-5-------------------------7--7p5--7p5------------------|
|-5-------------------------7-----7----7-7-5-5h7h8~------|
|-3-------------------------5----------------------------|
|--------------------------------------------------------|
i only know im gonna tryyyyyyyyy
|--------------------7-------5---|
|--------------------6-------4---|
|--------------------7-------5---|
|--------------------7-------5---|
|--------------------5-------3---|
|--------------------------------|

chorus

 power tools              power tools        i cant loose  
|-------------9----------|-------------7------|
|-------------8----------|-------------6------|
|-------------9----------|-------------7------|
|14-12--9-----9----------|14-12--9-----7------|x2
|12s10--7-----7----------|12s10--7-----5------|
|------------------------|--------------------|

verse2 1:12 same as last verse.

pre chorus-1:30 same as last

chorus- same as last

bridge                    Ex
|--------------------------7---|
|--------------------------6---|
|-2-2----------2-2-2-------7---|repeat as many times as heard
|-2-2-2-2-2--2-2-2-2-2-2---7---|
|-----4-5-5--4-------4-5---5---|
|------------------------------|

verse 3-same
pre chorus-same
chorus-same


im not really sure if this is it but its close
|-2-2-2-2-2-2--2-2--2-2-2--------|
|-0-0-0-3-3-3--3-3--0-0-3--------|
|-------4-4-4--4-4------4--------|
|--------------------------------|
|--------------------------------|
|--------------------------------|

theres some parts im missing here and there but this is basically most of it
 IF THERE ARE ANY OTEHR TUBES FANS OUT TEHRE LIEK ME GIMMME A HIT my emails black_blizzord@msn.com
Related for Power Tools tab
×
Best way to learn
"Power Tools"