Song name
# A B C D E F G H I J K L M N O P Q R S T U V W X Y Z

Tubes - Power Tools tab

artist-the tubes
song-power tools
album-completion backward principal
words by-Fee Waybill
guitarist-Bill Spooner and Roger Steen
tabbed by-smellslikefeet1

this song is kinda hard because the exagerated chords are kinda confusing so this is
gonna be kinda tough to understand.the exagerated chrods are the ones u can really
hear in the verse.
Ex-Exagerated chord
h-hammeron
p-pulloff
~-vabrato
s-slide to


bass part;
|-------------------|
|-------------------|
|-5-5--3-3--8-8--5-5|
|-------------------|

guitar 1 00;08 verse
|---------------------------|
|---------------------------|
|--------5----7-7-----------|
|--------3----5-5-----------|
|-5-5-3h5--5-3----3-5-------|
|---------------------------|

guitar 2 plays these chords over the first 2 notes

  D D
|-7-7--|
|-6-6--|
|-7-7--|
                        
                    
Tap to rate this tab
# A B C D E F G H I J K L M N O P Q R S T U V W X Y Z