Song name
# A B C D E F G H I J K L M N O P Q R S T U V W X Y Z

Tuck Andress - Time After Time tab

Help us improve GuitareTab! Take a short survey!
Tabbed by: Aiden4140

Tuning: Standard

e|----------------------------------------------------------------------|
B|--10-10-10---10-10-10-14-14---14-14-14-12-10---10-11-10--10-11-10-----|
G|--10--9-10---10--9-10-14-14---14-14-14-12-10---10-10-10--10-10-10-----|
D|----------------------------------------------------------------------|
A|----------------------------------------------------------------------|
E|----------------------------------------------------------------------|

e|------------------------101210----101210----101210----101210----------|
B|--------------------1012------1210------1210------1210------1210------|
G|--7~--9~--10~--12~----------------------------------------------------|
D|----------------------------------------------------------------------|
A|----------------------------------------------------------------------|
E|----------------------------------------------------------------------|

e|--17--15--13-15-13-12-13-10----17-15-17-------------------------------|
B|----------------------------------------------------------------------|
G|----------------------------------------------------------------------|
D|----------------------------------------------------------------------|
A|----------------------------------------------------------------------|
E|----------------------------------------------------------------------|

e|------------------13--------------------------------------------------|
B|-----------13-----------------------------13-------15-13----17-15-13--|
G|--14-12-14----14-----14-12-------14-12-------14----------14-----------|
D|---------------------------15----------15-------15--------------------|
A|----------------------------------------------------------------------|
E|----------------------------------------------------------------------|

e|--17--------------------------------------15-13-----------------------|
B|--17-----13-------13-15-13-17-13-15-13--------------------------------|
G|------------14-------------------------14-----------------------------|
D|----------------------------------------------------------------------|
A|----------------------------------------------------------------------|
E|----------------------------------------------------------------------|

Related for Time After Time tab