Song name
# A B C D E F G H I J K L M N O P Q R S T U V W X Y Z

Tue Loup - Les Vanneaux tab

-------------------------------------------------------------------------------
  Tue Loup - Les Vanneaux
-------------------------------------------------------------------------------
Album : La Bancale
Tempo : 108
Tabbed by:newg
E-mail:gwendal.mollo@orange.fr

Basse :
G|-----------------------------------------------------------|
D|-----------------------------------------------------------|
A|-----7---5-----7---5-----7---5------7---5--8---------------|
E|--0---------0--------0----------0--------------------------| Let Ring

Guitare :
e|------------------------------------------------------------|
B|------------------------------------------------------------|
G|------------------------------------------------------------|
D|---2-0----2-0---2-0---2-0--2-0-3--2-0-3--2-0-3--2-0-3-------|
A|------------------------------------------------------------|
E|-0------0-----0-----0---------------------------------------| Let Ring

e|-----------------------7\-----------------------------------|
B|-----------------------8\-----------------------------------|
G|-----------------------9\-----------------------------------|
D|-----------------------9\-----------------------------------|
A|-----------------------7\-----------------------------------|
E|------------------------------------------------------------|

e|------------------------------------------------------------|
B|------------------------------------------------------------|
G|------0---0---0---0--0---0--0---0---------------------------|
D|--0-2---3---2---3--2---3--2---3-----------------------------|
A|------------------------------------------------------------|
E|------------------------------------------------------------|

Outro           Em   D#   D
e|---------------7----6---5----------------------------|
B|---------------8----8---7----------------------------|
G|---------------9----8---7----------------------------|
D|---------------9----8---7----------------------------|
A|---------------7----6---5----------------------------|
E|-----------------------------------------------------|
Tap to rate this tab
 
# A B C D E F G H I J K L M N O P Q R S T U V W X Y Z