Song name
# A B C D E F G H I J K L M N O P Q R S T U V W X Y Z

Tue Loup - Le Martin Pecheur chords

Highlighted       Show chord diagrams
-------------------------------------------------------------------------------
                             Tue Loup -Le Martin Pêcheur
-------------------------------------------------------------------------------
Album : Rachel au rocher
Tempo : 140
Tabbed by:newg
E-mail:gwendal.mollo@orange.fr (merci à pichtashe@yahoo.fr)
               
Intro :
               Bm                           F#m
e|---------------2------2-----2--|------------2------2----2------|
B|---3h2---------3------3-----3--|---3h2------2------2----2------|
G|-------4h2-----4------4-----4--|------4h2---2------2----2------|
D|---------------4------4-----4--|------------4------4----4------|
A|-------------2----2-2-----2----|------------4------4----4------|
E|-------------------------------|----------2----2-2----2--------|  x2


                Bm                                F#m                    
T'entends pas dehors ? Comme ça roucoule, ça fait plouf…
                     Bm                     F#m    
Le grand mélange des corps par le désir impérieux
              G     A#   C#      
Oh oui, le désir

               Bm                         F#m  
Tu sens pas le lierre ? Qui avance et qui bouffe
                Bm                    F#m  
Nos cœurs en jachère par l'obscur paresseux
              G      A#   C#   
Oh oui, paresseux


Refrain:
           D    F#m                 G      A#
Mais il revient,    déverser ses couleurs
       D   F#m                G      A#
Et retirer,    nos masques de mots
         D    F#m            G      A#         D
Oh bénit soit,   le martin pêcheur
          Bm
Le multicolore
 

     Bm                           
e|-----2-------------|
B|-----3---2h3h2-----|
G|-----4---------2h4-|
D|-----4-------------|
A|---2---------------| x2    F#m x2
E|-------------------|


Tu vois pas dehors ?
Les chenilles anciennes
Dans leur nouveau corps
A défier l'apesanteur
Oh l'apesanteur

Tu sens pas le givre ?
Se répandre et faire sienne 
Nos âmes moins vives
En prise sous la froideur
Oh oui, la froideur

Refrain

Ah tout ce confort
Cachot de l'âme tu implores
Je ne peux satisfaire
Mon amour vit au grand air
Enceint de vieux mur
N'avoisinant que verdure
Oh sûr de sa visite
Au bonheur je t'invite
Aller, je t'invite

Refrain :
           D    F#m                 G      A#
Mais il revient,    déverser ses couleurs
       D   F#m                G      A#
Et retirer,    nos masques de mots
         D    F#m            G      A#
Oh bénit soit,   le martin pêcheur                --
         D              F#m           G      A#    |  x2
Oh bénit soit,soit, soit    le multicolore        --

D

Tap to rate this tab
# A B C D E F G H I J K L M N O P Q R S T U V W X Y Z