Song name
# A B C D E F G H I J K L M N O P Q R S T U V W X Y Z

Tue Loup - Merlin chords

-------------------------------------------------------------------------------
                             Tue Loup - Merlin
-------------------------------------------------------------------------------
Album : La Belle Inutile
Tempo : 80/90
Tabbed by:newg
E-mail:gwendal.mollo@orange.fr

Accords : 
Tout en barré sauf le refrain E:022100 et Am:x02210

Riff:
    B7sus2/C#                     Amadd9/E
e |----------------------------|----------------------------||
B |--------------0-------------|--------------0-------------||    
G |--------2--------2----------|--------5--------5----------||
D |-----4-----4--------4-------|-----7-----7--------7-------||
A |--4--------------------4s---|--7--------------------5----||
E |----------------------------|----------------------------||


Intro : Riff x2 F#m  Riff x2
  

F#m                     Am
A trop vouloir faire le ménage
G#m                    F#m
Dans le nez, j'ai pris un retour de balai
F#m                      Am 
Mais les araignées sur la plage
G#m                      Riff
Me présente leur nouveau balai

F#m              Am
Comment vider ce vieux grenier
G#m                F#m
Qui me tient lieu de cervelle
F#m                          Am
Sans pour autant tout foutre à la poubelle
G#m                Riff
On s'attache à ses vieux souliers

Refrain : 
   E             Am           
d'ici je vois Merlin
 
             F#m C#m F#m C#m
Il faut l'abattre
D         E                 F#m C#m F#m C#m
Ouais, en bûcheron je m'éclate
D             E          F#m C#m F#m C#m      
Quand monte l'odeur du sapin 

Riff x2

{F#m Am G#m F#m]
Alors on redit je t'aime
Un peu trop vite sans même
Y réfléchir à deux fois
Et puis s'en mordre les doigts

A s'en éplucher les phalanges
En maudissant dans sa fange
Cette sale petite voix du cœur
Qui nous fit croire au bonheur


Refrain : 
   E             Am           
d'ici je vois Merlin
 
             F#m C#m F#m C#m
Il faut l'abattre
D         E                 F#m C#m F#m C#m
Ouais, en bûcheron je m'éclate
D             E          F#m C#m F#m C#m      
Quand monte l'odeur du sapin 
      D                   E        F#m C#m F#m C#m  D E
C'est pour la fée que je fend du sapin

F#m C#m F#m C#m  D E E

Riff X 2
F#m
Tap to rate this tab
 
# A B C D E F G H I J K L M N O P Q R S T U V W X Y Z