Song name
# A B C D E F G H I J K L M N O P Q R S T U V W X Y Z

Tuff Darts - Rats tab

Tabbed by, paulie99
Song- Rats
Band- Tuff Darts
Tuning- E,A,D,G,B,e

                                        
                                
               Verse 1                              Verse 2
INTRO
                    x3                                 x1
E---------------------------------------|----------------------------------|
B---------------------------------------|----------------------------------|
G--2h4-------2h4-------4--2-------------|--2h4-------2h4-------4-----------|
D------2---------4-4\5---0--------------|------2---------4-4\5---0--4......|
A---------------------------------------|---------------------------2......|
E--------(0)----------------------------|--------(0)-----------------------|

CHORUS
                     x2
E--------------------------------------------|
B--------------------------------------------|
G--------------------------------------------|
D--7/9-9--9------------------------7--7--7---|
A--5/7-7--7--7/9-9--9---5/7-7--7---5--5--5---|
E------------5/7-7--7---3/5-5--5-------------|

Then you have one guitar playing an octave below, and the other playing an
octave high, so its like this. After you play this three times, you return
to Verse 2, play it once, then again the chorus.After you finish the chorus,
play either guitar 1 or 2 three times again. Then you play Verse 2. When the
chorus comes for the third time, the solo comes in. Play the chorus like 
usually, after you finish the chorus, play guitar 1. When you reach the
chorus for the fourth time the solo ends.Finish the chorus, play the main
riff three times. Finally you play the outro. Finish it and you're done!

MAIN RIFF

         Guitar 1                        Guitar 2
      
                x3                              x3
E-----------------------------|------------------------------------------|
B-----------------------------|------------------------------------------|
G--2h4-------2h4-------4--2---|--14h16--------14h16----------16----14----|
D------2---------4-4/5---0----|--------14-----------16-16/17-----12------|
A-----------------------------|------------------------------------------|
E--------(0)------------------|-----------(12)---------------------------|


OUTRO
               x3           Play the outro x3, then Verse 2 and thats it.

E----------------------------------------|
B--5/7-------5/7-------7--5--------------|
G--2/4-4-----2/4-6-6/7-4--2--------------|
D------2---------4-4/5---2---------------|
A--------(2)-------------0---------------|
E--------(0)-----------------------------|

See Ya!
enjoy
Tap to rate this tab
 
# A B C D E F G H I J K L M N O P Q R S T U V W X Y Z