Song name
# A B C D E F G H I J K L M N O P Q R S T U V W X Y Z

Tune-yards - Synonynonym tab

-------------------------------------------------------------------------------
                             Tune-Yards - Synonynonym
-------------------------------------------------------------------------------



e|--------3-----3------------3-----3-------------2-----2------------2-----2---0---|
B|-----0-----0-----0--3p0-------0-----0-------0-----0-----0---3p0------0----------|
G|--0-------------------------------------0---------------------------------------|
D|--------------------------------------------------------------------------------|
A|--------------------------------------------------------------------------------|
E|--------------------------------------------------------------------------------|


e|--------0-----0----------0-----0------------2-------------0h2---0------------|
B|-----0----0-----0--3p0------0-----0------0-----0---2h3--------------2---3p2--|
G|--0-----------------------------------0--------------------------------------|
D|-----------------------------------------------------------------------------|
A|-----------------------------------------------------------------------------|
E|-----------------------------------------------------------------------------|


Continues for the rest of the song.


************************************

| /   slide up
| \   slide down
| h   hammer-on
| p   pull-off
| ~   vibrato
| +   harmonic
| x   Mute note
| b   Bend
| pb  Pre-bend
| br  Bend release
| pbr Pre-bend release
| brb Bend release bend
Tap to rate this tab
# A B C D E F G H I J K L M N O P Q R S T U V W X Y Z