Song name
# A B C D E F G H I J K L M N O P Q R S T U V W X Y Z

Tune-yards - Powa tab

Powa - TUnE-yArDs

Capo 3rd fret! 

All chords relative to capo
A - x02220
E/B- x22100
Dsus2/F - xx4230
E/G# - xx645x  *You can play top E open or silence it*
A2 - 5776xx
D2 - x577xx

VERSE:

     A               A  A    E  E    Dsus2/F
e--|-----0-2-0-----|-0--0----0--0--|-0------0---------|
B--|---2-------2---|-2--2----0--0--|-3----3---3-------|
G--|-2-----------2-|-2--2----1--1--|-2--2-------2-----|
D--|---------------|-2--2----2--2--|-4------------4---|
A--|---------------|-0--0----2--2--|------------------|
E--|---------------|---------------|------------------|

    Dsus2/F E/G#  A
e-|-0--0--------|-0--|
B-|-3--3---5--5-|-2--|
G-|-2--2---4--4-|-2--|    x 5
D-|-4--4---6--6-|-2--|
A-|-------------|-0--|
E-|-------------|----|


CHORUS:

     A  A     A2    A  A    E  E    Dsus2/F  D2
e--|-0--0---------|-0--0----0--0--|-0--0--------|
B--|-2--2---------|-2--2----0--0--|-3--3--------|
G--|-2--2-----4---|-2--2----1--1--|-2--2-----7--|
D--|-2--2-----6---|-2--2----2--2--|-4--4-----7--|
A--|-0--0-----6---|-0--0----2--2--|----------5--|
E--|----------5---|---------------|-------------|

    Dsus2/F  E2
e-|-0--0--------|
B-|-3--3---5--5-|
G-|-2--2---4--4-|    x4
D-|-4--4---6--6-|
A-|-------------|
E-|-------------|

VERSE 1
Wait for me, honey
Wait for me, honey
I will never get to sleep
Rebel, rebel, no
I can never get to sleep
I'm a rebel, rebel, no
Hold me til I get to sleep

VERSE 2:
Oh baby bring me home to bed
Rebel, rebel, no
Lightening dances in my head
Devil, devil, whoa-oh-oh
Burning steady as a motor
Not a pebble, pebble, whoa-oh-oh
Baby, bring me home to bed
I need you to press me down before my body flies away from me

CHORUS:
Your power, inside
It rocks me like a lullaby
Your power, Inside
It rocks me like a lullaby
Your power, inside
Oh baby, I just don't know why
Your power, inside

Wait for me, honey
Wait for me, honey

BRIDGE: (bass solo)
Mirror, mirror on the wall
Can you see my face at all?
My man likes me from behind
Tell the truth, ah never mind
Cause you bomb me with lies, humiliations everyday
You bomb me so many times I never find my way
Come on and bomb me
Why won't you bomb me?
Come on and bomb
Go on and whoa-oh-a-woah-a-oh-ooh-oh

CHORUS:
Your power, inside
It rocks me like a lullaby
Your power, in mine
It gives me thrills I can't describe
Your face in mine
Oh baby, I just don't know why
Your power, inside
Your power
Tap to rate this tab
# A B C D E F G H I J K L M N O P Q R S T U V W X Y Z