Song name
# A B C D E F G H I J K L M N O P Q R S T U V W X Y Z

Tunng - Jenny Again tab

http://www.youtube.com/watch?v=6bjIi0aZrng

Intro:

E-0---------------|--0--------0-----|-----------------|----------3------|
B---------1-----1-|---------------1-|--------1--------|--0-----------0--|
G----0----0-------|-------0---------|------------0----|------0----------|
D-----------------|-----------------|-----2------2----|-----------------|
A-3-------3--3----|--2--------------|--0--------------|-----------------|
E-----------------|-----------------|-----------------|--3-----------3--|



E----------3------|----------3------|------------------|----0------------|
B--------------1--|----------1--1---|--0---------1--3--|------------3----|
G-2---------------|--0----------0---|--------0---------|-----------------|
D------3----------|-----2-----------|------------------|-----------------|
A-----------------|-----------------|------------------|-----------------|
E-1---------------|--0--------------|--3--3------3--3--|--3-----3--------|




E--------0--------|---------0-------|-----------------|----------3------|
B-1---------1-----|------------1----|--0h1--1-1-1-----|--0-------0---0--|
G-----0-----------|--0---0----------|-----------------|------0----------|
D-----------------|-----------------|-----------------|-----------------|
A-3---------------|--2--------------|--0--------------|-----------------|
E-----------------|-----------------|-----------------|--3--------------|



E----------3------|----------3------|------------------|----0------------|
B--------------1--|----------1--1---|--0---------1--3--|------------3----|
G-2---------------|--0----------0---|--------0---------|-----------------|
D------3----------|-----2-----------|------------------|-----------------|
A-----------------|-----------------|------------------|-----------------|
E-1---------------|--0--------------|--3--3------3--3--|--3-----3--------|










Chorus:


E------1----------|------0h1--------|------------------|-----------------|
B---------3-------|------------3----|--1------------1--|-3--------1p0----|
G-2-2-------------|-2-2-------------|--------0---------|-------0-------2-|
D-----------------|-----------------|------------------|-----------------|
A-----------------|-----------------|--3--3------------|-2--2------------|
E-----------------|-----------------|------------------|-----------------|




I have to finish it.. Stay tuned
Tap to rate this tab
 
# A B C D E F G H I J K L M N O P Q R S T U V W X Y Z