Song name
# A B C D E F G H I J K L M N O P Q R S T U V W X Y Z

Tunng - Spoons tab

Help us improve GuitareTab! Take a short survey!

----------------------------------------------------------------------------
			Title: Spoon - Artist: Tunng
----------------------------------------------------------------------------
Tabbed by: b_rye85
Email: b_roni85@yahoo.com

Tuning: standard capo on 4th fret

e|---------------------0-^-------------------------------------------------|
B|---------------------0-^-------------------------------------------------|
G|---------------------0-^--------0-----------------0-----------------0----|
D|------0-----0--------2-^----2----------2------2----------2------2--------|
A|--0h2----------------2-^-------------------------------------------------|
E|--------0h3---2h3-0--0-^--0---0---0----0----0---0---0----0----0---0---0--|

e|-----------------------|-------------------------------------------------|
B|-----------------------|-------------------------------------------------|
G|-------------0---------|--------0-----------------0-----------------0----|
D|--2------2----------2--|----3----------2------3----------0------3--------|
A|-----------------------|-------------------------------------------------|
E|--0----0---0---0----0--|--0---0---0----0----0---0---0----2----0---0---0--|

e|-----------------------|-------------------------------------------------|
B|-----------------------|-------------------------------------------------|
G|-------------0---------|--------0-----------------0-----------------0----|
D|--2------3----------0--|----0h2--------2------2----------2------2--------|
A|-----------------------|-------------------------------------------------|
E|--0----0---0---0----2--|--0-------0----0----0---0---0----0----0---0---0--|

e|-----------------------|-------------------------------------------------|
B|-----------------------|-------------------------------------------------|
G|-------------0---------|--------0-----------------0-----------------0----|
D|--2------2----------0--|----0h2--------2------3----------2------2--------|
A|-----------------------|-------------------------------------------------|
E|--0----0---0---0----2--|--0-------0----0----0---0---0----0----0---0---0--|

e|-----------------------|-------------------------------------------------|
B|-----------------------|-------------------------------------------------|
G|-------------0---------|--------0------2--------2------2----------2------|
D|--2------2----------0--|----0h2-------------0-----------------0----------|
A|-----------------------|-------------------------------------------------|
E|--0----0---0---0----2--|--0-------0----2--2---2---2----2----2---2---2----|

e|------------------------------------|------------------------------------|
B|---------------------------0---1----|--0-------------0-------------0-----|
G|--2----------2------2---------------|-----------0-------------0----------|
D|---------0--------------------------|-------0h2-----------0h2------------|
A|------------------------------------|------------------------------------|
E|--2----2---2---2----2----2---2---2--|--3--3-------3--3--3-------3--3--3--|

e|-------------|----------------------0------------------------------------|
B|-------------|--------------0-----------------3---------1---------0h1p0--|
G|--------0----|-(0)----0----(0)-----------2---------2---------2-----------|
D|----0h2------|--4--------------------------------------------------------|
A|-------------|----------------------0---------0---------0---------0------|
E|--3-------3--|-----3-----3-----3-----------------------------------------|

e|-----|----------------------|-----------------------------------0--|-----|
B|-----|-----0------(0)----0--|-------0-----0-------0-----0-------0--|-----|
G|--0--|-----0-------0-----0--|-------0-----0-------0-----0----------|-----|
D|-----|--------0h2-----------|----2-------------4-------------4-----|-----|
A|-----|--3-------------3-----|--3-------5-----5-------5-----5-------|-----|
E|-----|----------------------|--------------------------------------|-----|

e|----------------------|-----------------------------------0--|-----------|
B|-----0------(0)----0--|-------0-----0-------0-----0-------0--|-----0-----|
G|-----0-------0-----0--|-------0-----0-------0-----0----------|-----0-----|
D|--------0h2-----------|----2-------------4-------------4-----|-----------|
A|--3-------------3-----|--3-------5-----5-------5-----5-------|--3--------|
E|----------------------|--------------------------------------|-----------|

e|----------------|-----------------------------------0--|-----------------|
B|------(0)----0--|-------0-----0-------0-----0-------0--|-----0------(0)--|
G|-------0-----0--|-------0-----0-------0-----0----------|-----0-------0---|
D|--0h2-----------|----2-------------4-------------4-----|--------0h2------|
A|----------3-----|--3-------5-----5-------5-----5-------|--3--------------|
E|----------------|--------------------------------------|-----------------|

e|---------------|----------------------0^---------------------------------|
B|----0-------0--|----------------------0^---------------------------------|
G|----0-------0--|----------------------0^-----*****REPEAT--ALL*****-------|
D|---------2-----|------0-----0---------2^---------------------------------|
A|--3----3-------|--0h2-----------------2^---------------------------------|
E|---------------|--------0h3---2h3--0--0^---------------------------------|


| /  slide up
| \  slide down
| h  hammer-on
| p  pull-off
| ~  vibrato
| +  harmonic
| x  Mute note
============================================================================
Related for Spoons tab