Song name
# A B C D E F G H I J K L M N O P Q R S T U V W X Y Z

Tunng - Codebreaker tab

Artist:    Tunng
Title:     Codebreaker
Album:     Mothers Daughter and Other Songs (2005)
Tabbed By: J.L. Garrett
On Date:   November 6, 2009
Email:     milkcritter at hot mail


I couldn't find the tab to this so I slowed it down in WaveLab and
worked it out. I'm 90% sure it's correct. It's plenty good for me.
I play this on an acoustic and it sounds fine. Tap your foot to the
eigth notes for the first 2 bars and then the guitar comes in.
Keep on tapping! lol :O)


standard tuning
capo on the 5th fret

all notes are relative to capo

intro, verse and outro:
e|---------------------------------|---------------------------------|
B|---------------------------------|---------------------------------|
G|---------------------------------|---------------------------------|
D|--------1-------1-------1-0------|--------3-------3-------3-0------|
A|----1-------1-------1------------|----5-------5-------5------------|
E|--3---3-------3-------3----------|--4---4-------4-------4----------|


e|---------------------------------|---------------------------------|
B|---------------------------------|---------------------------------|
G|---------------------------------|---------------------------------|
D|--------5-------5-------5-0------|--------5-------5-------5-0------|
A|----6-------6-------6------------|----5-------5-------5------------|
E|--6---6-------6-------6----------|--6---6-------6-------6----------|


e|---------------------------------|---------------------------------|
B|---------------------------------|---------------------------------|
G|---------------------------------|---------------------------------|
D|--------3-------3-------3-0------|--------3-------3-------3-0------|
A|----3-------3-------3------------|----3-------3-------3------------|
E|--4---4-------4-------4----------|--6---6-------6-------6----------|


e|---------------------------------|---------------------------------|
B|---------------------------------|---------------------------------|
G|---------------------------------|---------------------------------|
D|--------5-------6-------6--------|--------5-------6-------6--------|
A|----6-------6-------6-----6------|----6-------6-------6-----6------|
E|--3---3-------3-------3----------|--3---3-------3-------3----------|

chorus:
e|---------------------------------|---------------------------------|
B|---------------------------------|---------------------------------|
G|----------------0-------0--------|----------------0-------0--------|
D|--------1-----------1-----1------|--------1-----------1-----1------|
A|----1-------1---------1----------|----1-------1---------1----------|
E|--3---3-------3------------------|--3---3-------3------------------|


e|---------------------------------|---------------------------------|
B|---------------------------------|---------------------------------|
G|---------------------------------|---------------------------------|
D|--------5-------6-------6-5------|--------5-------6-------6-5------|
A|----6-------6-------6------------|----6-------6-------6------------|
E|--4---4-------4-------4----------|--4---4-------4-------4----------|


verse 1:
Like Watson and Crick
You seem to look
Into my soul
And though my DNA
Is too small for your scope
You make it much deeper

verse 2:
Hydrogen bursts
Inside a star
Don't mean a lot
From whereabouts we are
It's too far for your scope
But you make it much further

chorus 1:
Code breaker
Code breaker
Code breaker

verse 3:
I've searched around 
Here for the key
But I'm blind to it
And quantum theorists tell me
They've never seen the likes of your radar

chorus 2:
Code breaker
Code breaker
Code breaker
Code breaker
Code breaker
Code breaker
Code breaker
Code breaker
Code breaker

outro:
Ah
Ah
Ah
Ah
Ah
Ah
Ah
Ah
Tap to rate this tab
# A B C D E F G H I J K L M N O P Q R S T U V W X Y Z