Song name
# A B C D E F G H I J K L M N O P Q R S T U V W X Y Z

Tunng - The Pioneers tab

Title: The Pioneers
Artist: Tunng
Tabbed by: _arokh_

Capo: 2nd fret
Tuning: Standard

The song uses a pretty basic picking pattern. If you can play the usual folk
pickings this will be no problem at all for you, if not: with a little
practice you'll get the hang of it, play the alternating bass notes with the
thumb and the rest with your fingers. Note: in the last two measures the D
string is lead, thus played with the fingers, only E and A are bass (thumb).

The notation is relative to the capo on the 2nd fret.


e|-0----------------0--------|------------------0--------|
B|----------3----------------|-1--------3----------------|
G|---------------------------|---------------------------|
D|------2---------------2----|------2---------------2----|
A|-0------------0------------|-0------------0------------|
E|---------------------------|---------------------------|


e|-0----------------0--------|------------------0--------|
B|----------3----------------|-1--------3----------------|
G|---------------------------|---------------------------|
D|------2---------------2----|------2---------------2----|
A|-0------------0------------|-0------------0------------|
E|---------------------------|---------------------------|


e|---------------------------|---------------------------|
B|-0----------------0--------|-1----------------0--------|
G|----------2----------------|----------2----------------|
D|------2---------------2----|------2---------------2----|
A|---------------------------|---------------------------|
E|-0------------0------------|-0------------0------------|


e|---------------------------|---------------------------|
B|---------------------------|-3--------1-------3--------|
G|-2----------------2--------|---------------------------|
D|----------3----------------|---------------------------|
A|------3---------------3----|------3---------------3----|
E|-1------------1------------|-1------------1------------|


just repeat from the beginning, again and again ...

Tap to rate this tab
# A B C D E F G H I J K L M N O P Q R S T U V W X Y Z