Song name
# A B C D E F G H I J K L M N O P Q R S T U V W X Y Z

Tunng - Tale From Black tab

-------------------------------------------------------------------------------
			     Tale From Black - Tunng
-------------------------------------------------------------------------------
Tabbed by: adeagle

Tuning: Drop C

Chord at very beginning:
D|-------------------||
A|-------------------||
F|-------------------||
C|----5--------------||
G|----3--------------||
C|----5--------------||

Guitar 1:

Part A:

D|-------------------------------------------------||
A|-------------------------------------------------||
F|-------------------------------------------------||
C|-5----2--5----3----2--3---0-----0---0------0-----||
G|----3------------3----------0---------0----------||
C|-5------------3-----------0---0-----0----0-------||

Part B:
D|-----------------------------------------------------||
A|-----------------------------------------------------||
F|-----------------------------------------------------||
C|-7----3--7----10----7--12/---7----5--7---7---5--7----||
G|----5-------------8-------------5----------5---------||
C|-7------------10-------------7-----------7-----------||

Guitar 2
Part A:
D|---10-----10--8-----8-----------------------||
A|------10---------10----10----10-10---10-----||
F|--------------------------7--------7--------||
C|--------------------------------------------||
G|--------------------------------------------||
C|--------------------------------------------||

Part B:
D|---12-----12--10------10-----------------------||
A|------10----------10-----10----10-10----10-----||
F|-----------------------------7--------7--------||
C|-----------------------------------------------||
G|-----------------------------------------------||
C|-----------------------------------------------||

Verse progression (both guitars):
Part A -> Part A -> Part B -> Part A
Tap to rate this tab
# A B C D E F G H I J K L M N O P Q R S T U V W X Y Z