Song name
# A B C D E F G H I J K L M N O P Q R S T U V W X Y Z

Tunng - Hustle tab

Definitely one of my favourites.
Enjoy.

Key:
D-Major.
Progression: G A D Bm 
             C D G Em (relative to Capo 7th)

Intro (00:00)

Synth/Piano
e|---------------------------------------------------------|
B|----8-7---8-7----10-7----10-7---8-7---8-7---8-7---8-7----|
G|--9-----9-----11------11------7-----7-----7-----7--------|
D|---------------------------------------------------------|
A|---------------------------------------------------------|
E|---------------------------------------------------------|

Main Riff (00:37)

ac. Guitar (Capo 7th, Chords relative to Capo)
            C            D            G             Em
e|---------------------------------------------------------|
B|---0--0---1--------1---3------3-------0------------------|
G|---2--0---0--------0---2------0h2--/4---4--2p0----0------|
D|-0--------2------2-----0----0---------------------2------|
A|----------3----3-----------------------------------------|
E|-----------------------------------/3---3----------0-----|

there are two alternative endings to this riff:

    G            Em                    G               (Em)
e|---------0---------|              e|-------------------------|
B|----3-------0------|              B|-0-----------------------|
G|--4------------0---|              G|---------0---------------|
D|---------------2---|     and      D|-0---0h2-------0---------|
A|-------------------|              A|-----------0h2-----------|
E|--3----3---------0-|              E|-3----------------3------|


Verse (1:20)

"When I come home, you won't be there anymore..."


e|--------------|
B|---3----------|
G|---0----------| repeat this for the first half of the verse
D|---0-----0----|          (tricky timing!)
A|---------0----|
E|---------3----|

"When I see land, you will conjure up a storm..."
-> main riff


Chorus (2:03)

"And we will hustle, hustle, hustle to be free..."
-> main riff, slight changes

Verse II (2:35)

"And you will slide on the back of my bike..."

"When it's your turn, you will tie me to the tree..."
     C           G    Em
e|------------------------|
B|--(1)----------0----0---|
G|---0-----------0----0---|o
D|---2-----------0----2---|
A|---3-----------2----2---|o
E|---3-----------3----0---|

Chorus (3:18)
-> same as first chorus

Outro (4:02)
-> main riff, then:
     G  D  G
e|-------------|
B|---3--3--3---|
G|---0--2--0---|
D|---0--0--0---|
A|---2--0--2---|
E|---3--2--3---|




Listen to the song for exact timing & repetitions.
Feel free to comment & rate & correct. I'm totally aware that this tab is not perfect.
Tap to rate this tab
# A B C D E F G H I J K L M N O P Q R S T U V W X Y Z