Song name
# A B C D E F G H I J K L M N O P Q R S T U V W X Y Z

Tunng - The Pioneers tab

Artist: Tunng (http://www.tunng.co.uk/)
Song: The Pioneers
Album: The Pioneers

Capo: 2nd fret
Tuning: Standard

I heard this song on last night's episode of the OC and I think it's really cool. Since 
can't find this tab anywhere I've written my own. I think it's pretty accurate.

The song uses really easy chords, but it's kinda hard to follow the picking pattern. 
you can't achieve with a little practice.


   Am7          Am/Am7        Am7        Am/Am7       Em           Em

-0--------0-|----------0-|-0-------0-|---------0-|------------|------------|
-------3----|-1-----3----|-------3---|-1-----3---|-0--------0-|-1--------0-|
----2-------|----2-------|----2------|----2------|-------0----|-------0----|
-2----------|-2----------|-2---------|-2---------|----2-------|----2-------|
------------|------------|-----------|-----------|-2----------|-2----------|
------------|------------|-----------|-----------|------------|------------|

     F          Am/Am7

------------|------------|-----|
------------|-3-----1--3-|-----|
-2--------2-|----2-------|-----|
-------3----|-2----------|-----|
----3-------|------------|-----|
-1----------|------------|-----|


This is the only riff, which repeats all over during the verses.

Enjoy!

-Victor.
Tap to rate this tab
 
# A B C D E F G H I J K L M N O P Q R S T U V W X Y Z