Guitaretab - guitar tabs
Song name
# A B C D E F G H I J K L M N O P Q R S T U V W X Y Z

Tupac Shakur - Changes Acoustic chords

Highlighted       Show chord diagrams
Other tabs were good, just not complete. 
Pretty easy song and it's so fun to play. 
Better if you can rap good though...

Intro:
E|--8-8----7------5------5--7------------|
B|--8-8----8----------8--------8--5---3--|
G|--7-7----7-----------------------------|
D|---------------------------------------|
A|---------------------------------------|
E|---------------------------------------|

   G          D            Cadd9
E|------3-3-------2-2h3----3-------------|
B|-----3---3-----3---------3-------------|
G|----0-----0---2----------0-------------|   I like to tap
D|---0---------0-----------2-------------|   the guitar for
A|--2---------0------------3-------------|   percussion here
E|-3-------------------------------------|




Verses: Am Em D Cadd9 G D Cadd9 Cadd9   (Cadd9 shape is above ^)


              Am                   Em       
     I see no changes, wake up in the morning
[ Tab from: http://www.guitaretab.com/t/tupac-shakur/184402.html ]
                     D               Cadd9
     and I ask myself, is life worth living should i blast myself?
 
 G                D                               Cadd9
     I'm tired of being poor and even worse I'm black

  Cadd9                                                 Am
     My stomach hurts so I'm lookin for a purse to snatch...


Chorus: G D C C as follows

|--7--5--3--3-------------------|
|--8--7--5--5-------------------|
|--7--7--5--5-------------------|
|-----7--5--5-------------------|
|-----5--3--3-------------------|
|-----5--3--3-------------------|

G D C            C
       That's just the way it is

G D C            C 
       Things will never be the same

G D C            C
       That's just the way it is

G D        C C
    Aw yeah...  





That's about it.. all chords repeat throughout; in the part where
he starts talking ("we gotta make a change.. it's time for us as a
people...") play the verse chords. Listen to the song for the
timing, it took me a while to figure that out. Also, don't comment 
and say things like "this tab sucks", it's not supposed to be exact. 
If you have something you'd like to add that maybe would improve 
the tab, then comment. Otherwise keep your mouth shut and make your 
own tab if you don't like it.
Related for Changes Acoustic chords
Changes Acoustic chords by Tupac Shakur