Song name
# A B C D E F G H I J K L M N O P Q R S T U V W X Y Z

Tupac Shakur - I Aint Mad At Cha tab

                     I Aint Mad At Cha


Artist: Tupac Shakur
Tabbed By: DG
Email Me: Sentinel@tws.serveftp.org


[Lead Piano Transposed]

E||------------------------|----------------|-----------------------|
B||------------------------|--5----8--------|-----------------------|
G||------------------------|--2----5--------|-----------------------|
D||------------------------|--3----6--------|--3--5--6--5--3--------|
A||--3--5--6--5--3---------|--5----8--------|-----------------5-----|
E||-------------------3----|----------------|--------------------6--|


|-----------------------|--6----8-------------------||
|-----------------------|--6----9----8----8---------||
|-----------------------|--7----8---------5----7----||
|-----------------------|--8----10--------6----8----||
|--------5--------------|--8----11--------8----5----||
|--6--8-----8---6--1----|--6----8-------------------||
                                |_______________|
                               Unsure if this is exact.


[Verse]                             _________
                                   |         |(Alternate tab)
E||-----------------8--------------\/---|----\/-------|
B||--3----8---8-----9-----8---8--------|-----3--------|
G||--0----5---5-----8---------5----7---|-----3--------|
D||--1----6---6-----10--------6----8---|-----0--------|
A||--3----8---8-----11--------8----5---|--------------|
E||--3----x---6-----8------------------|--------------|
             ^^^
          [Use Thumb on Low E] -> (Bass Part)


This is a pretty hard song to play. I've been playing by ear for about 8 years and have
little experiece reading/writing sheet music so listen to the song to figure out the
Some of might be incorrect but it's close. I'm not used to playing jazz chords. 
between them is a b*tch. Good luck. Any problems/errors/thanks, just email me.

-DG

PS:
My first tab! And I can't believe I tabbed a hip-hop song. What the hell was I
I'm sorry Pink Floyd, you're coming next!
Tap to rate this tab
 
# A B C D E F G H I J K L M N O P Q R S T U V W X Y Z