Song name
# A B C D E F G H I J K L M N O P Q R S T U V W X Y Z

Tupac Shakur - My Block tab

The other tab of this by am5 isn't too bad.  I'm pretty sure this is the right way, it's 
lot easier to play and it sounds closer.

       G#m             D#m            Esus2           Bsus2

E|---------------|---------------|---------------|---------------|
B|------4--------|-----7---------|-----7---------|-----2---------|
G|--------4------|--------8------|--------9------|-------4-------|
D|---6-------6---|-----------8---|-----------9---|----------4----|
A|---------------|--6------------|--7------------|--2------------|
E|---------------|---------------|---------------|---------------|

       G#m             D#m            Esus2           Bsus2

E|---------------|---------------|---------------|------------2--|
B|------4--------|-----7---------|-----7---------|----------2----|
G|--------4------|--------8------|--------9------|-------4-------|
D|---6-------6---|-----------8---|-----------9---|-----4---------|
A|---------------|--6------------|--7------------|--2------------|
E|---------------|---------------|---------------|---------------|

not sure if the bass notes are in the right octaves but you can play around with them I guess
Tap to rate this tab
# A B C D E F G H I J K L M N O P Q R S T U V W X Y Z