Guitaretab - guitar tabs
Song name
# A B C D E F G H I J K L M N O P Q R S T U V W X Y Z

Tupac Shakur - Ghetto Gospel tab

here is the correct way to play it
Intro
               x2
|--16--15--13----|
|-------------16-|
|----------------|
|----------------|
|----------------|
|----------------|

Chorus
                          first ending         second ending
|---------------------|-----------------------|------------|
|---------------------|-----------------------|------------|
|------6-6~------8-8~-|-------10-10~------8-8~|-10~~--8~~~-|
|--6-6-6-6~--8-8-8-8~-|-10-10-10-10~--8-8-8-8~|-10~~--8~~~-|
|--4---------6--------|-8-------------6-------|-8~~~--6~~~-|
|---------------------|-----------------------|------------|
[ Tab from: http://www.guitaretab.com/t/tupac-shakur/58975.html ]
|-----------------------------------------------------------|
|-----------------------------------------------------------|
|------6-6~------8-8~------6-6~------5-5~--3~~--5~~-6~~-8~~-|
|--6-6-6-6~--8-8-8-8~--6-6-6-6~--5-5-5-5~--3~~--5~~-6~~-8~~-|
|--4---------6---------4---------3---------1~~--3~~-4~~-6~~-|
|-----------------------------------------------------------|

 Verse
              2x
|---------------|------------------|---------------|
|---------------|------------------|---------------|
|--10--8--6--8--|--10--12--13--15--|--10--8--6--5~-|
|--10--8--6--8--|--10--12--13--15--|--10--8--6--5~-|
|--8---6--4--6--|--8---10--11--13--|--8---6--4--3~-|
|---------------|------------------|---------------|

              2x
|---------------|------------------|
|---------------|------------------|
|--10--8--6--8--|--10--12--13--15--|
|--10--8--6--8--|--10--12--13--15--|
|--8---6--4--6--|--8---10--11--13--|
|---------------|------------------|

Chorus again
verse, and so on and so on,  enjoi
Related for Ghetto Gospel tab