Guitaretab - guitar tabs
Song name
# A B C D E F G H I J K L M N O P Q R S T U V W X Y Z

Tupac Shakur - Only God Can Judge Me tab

This is my first tab ever so its probably not very good but here goes... its my 
and is as accurate as i could make it.. please send any comments or feedback to my email: 
THANKS!

b = bend
/ = slide up
\ = slide down

Intro (also played throughout the songs verses)

E -------------------------------------------------------------------|
B --------13-11----9-8----6/8----------------------------------------|
G --11---------------------------------------------------------------|
D -------------------------------------------------------------------|
A -------------------------------------------------------------------|
E -------------------------------------------------------------------|

Chorus / Main Melody
[ Tab from: http://www.guitaretab.com/t/tupac-shakur/60417.html ]
E -----12--10-8-7-5-7--5-7-5-3-2-0-2---12--10-8-7-5-7--5-7-5-3-2-0-2-|
B -------------------------------------------------------------------|
G -------------------------------------------------------------------|
D -------------------------------------------------------------------|
A -------------------------------------------------------------------|
E -------------------------------------------------------------------|

E -7b-5-3-5-7----------7b-5-3-5-7/12-14-15-17--7b-5-3-5-7----------7--|b
B ------------5-7-8-10------------------------------------5-7-8-10----|
G --------------------------------------------------------------------|
D --------------------------------------------------------------------|
A --------------------------------------------------------------------|
E --------------------------------------------------------------------|

E -5-3-5-7/12--------------------------------------------------------|
B -------------------------------------------------------------------|
G -------------------------------------------------------------------|
D -------------------------------------------------------------------|
A -------------------------------------------------------------------|
E -------------------------------------------------------------------|

Thats it! Enjoy!
Related for Only God Can Judge Me tab