Guitaretab - guitar tabs
Song name
# A B C D E F G H I J K L M N O P Q R S T U V W X Y Z

Tupac Shakur - Ghetto Gospel Acoustic tab

-------------------------------------------------------------------------------
			     Ghetto Gospel - Tupac Shakur
-------------------------------------------------------------------------------
ok there is one tab on here that is close but i found i really cool way to play it on an 
acoustic guitar...i hope you like it...if you have any questions email me...plz rate it

i also tabbed out the whole thing...

Tabbed by: Ben Roach
Email: benroach14@hotmail.com

Tuning: Standard

Intro:

e|-16-15-13-----------16-15-13-----------------------------------------------|
B|----------16-14--14----------16-14-----------------------------------------|
G|---------------------------------------------------------------------------|
D|---------------------------------------------------------------------------|
A|---------------------------------------------------------------------------|
E|---------------------------------------------------------------------------|

Verse:

e|-----------------------------------------------------------------------------|
B|-----------------------------------------------------------------------------|
G|-10-10-X-8-X-X-X-X-X-X-X-X-6-6-X-8-X-X-X-X-X-X-X-X---------------------------|
D|-10-10-X-8-X-X-X-X-X-X-X-X-6-6-X-8-X-X-X-X-X-X-X-X----(2X)-------------------|
A|-8--8--X-6-X-X-X-X-X-X-X-X-4-4-X-6-X-X-X-X-X-X-X-X---------------------------|
E|-----------------------------------------------------------------------------|


e|-----------------------------------------------------------------------------|
B|------------------------------------------------------------(1X)-------------|
G|-10-10-X-12-X-X-X-X-X-X-X-X-13-13-X-15-X-X-X-X-X-X-X-X-----------------------|
D|-10-10-X-12-X-X-X-X-X-X-X-X-13-13-X-15-X-X-X-X-X-X-X-X-----------------------|
A|-8--8--X-10-X-X-X-X-X-X-X-X-11-11-X-13-X-X-X-X-X-X-X-X-----------------------|
E|-----------------------------------------------------------------------------|
[ Tab from: http://www.guitaretab.com/t/tupac-shakur/91033.html ]
e|-----------------------------------------------------------------------------|
B|-----------------------------------------------------------------------------|
G|-10-10-X-8-X-X-X-X-X-X-X-X-6-6-X-8-X-X-X-X-X-X-X-X---------------------------|
D|-10-10-X-8-X-X-X-X-X-X-X-X-6-6-X-8-X-X-X-X-X-X-X-X----(3X)-------------------|
A|-8--8--X-6-X-X-X-X-X-X-X-X-4-4-X-6-X-X-X-X-X-X-X-X---------------------------|
E|-----------------------------------------------------------------------------|

e|-----------------------------------------------------------------------------|
B|------------------------------------------------------------(1X)-------------|
G|-10-10-X-12-X-X-X-X-X-X-X-X-13-13-X-15-X-X-X-X-X-X-X-X-----------------------|
D|-10-10-X-12-X-X-X-X-X-X-X-X-13-13-X-15-X-X-X-X-X-X-X-X-----------------------|
A|-8--8--X-10-X-X-X-X-X-X-X-X-11-11-X-13-X-X-X-X-X-X-X-X-----------------------|
E|-----------------------------------------------------------------------------|

e|-----------------------------------------------------------------------------|
B|-----------------------------------------------------------------------------|
G|-10-10-X-8-X-X-X-X-X-X-X-X-6-6-X-8-X-X-X-X-X-X-X-X---------------------------|
D|-10-10-X-8-X-X-X-X-X-X-X-X-6-6-X-8-X-X-X-X-X-X-X-X----(3X)-------------------|
A|-8--8--X-6-X-X-X-X-X-X-X-X-4-4-X-6-X-X-X-X-X-X-X-X---------------------------|
E|-----------------------------------------------------------------------------|

Chorus: (figure out the strumming yourself...it's not hard)

e|-----------------------------------------------------------------------------|
B|-----------------------------------------------------------------------------|
G|-6--8--10--8------6--8--6--5----3--5--6--8-----------------------------------|
D|-6--8--10--8-(2X)--6--8--6--5----3--5--6--8----------------------------------|
A|-4--6---8--6------4--6--4--3----1--3--4--6-----------------------------------|
E|-----------------------------------------------------------------------------|

Verse
Chorus
Outro: (keep playing until the song is done)

e|-----------------------------------------------------------------------------|
B|-----------------------------------------------------------------------------|
G|-10-10-X-8-X-X-X-X-X-X-X-X-6-6-X-8-X-X-X-X-X-X-X-X---------------------------|
D|-10-10-X-8-X-X-X-X-X-X-X-X-6-6-X-8-X-X-X-X-X-X-X-X---------------------------|
A|-8--8--X-6-X-X-X-X-X-X-X-X-4-4-X-6-X-X-X-X-X-X-X-X---------------------------|
E|-----------------------------------------------------------------------------|


| /  slide up
| \  slide down
| h  hammer-on
| p  pull-off
| ~  vibrato
| +  harmonic
| x  Mute note
===============================================================================
Related for Ghetto Gospel Acoustic tab