Song name
# A B C D E F G H I J K L M N O P Q R S T U V W X Y Z

Tupelo Honey - Pull Me Closer tab

-------------------------------------------------------------------------------
                             PULL ME CLOSER - Tupelo Honey
-------------------------------------------------------------------------------
Tabbed by: Jim Luttrell
E-mail: jimluttrell@shaw.ca

Tuning: Dropped Db tuning (or drop C# tuning)
Tune guitar down a 1/2 step Eb,Ab,Db,Gb,Bb,eb, then drop the 6th string down to Db


Distortion with wah pedal or oscillating cut filter

0:00 - 0:13
e|---------------------------------------------------------------------------|
B|---------------------------------------------------------------------------|
G|---------------------------------------------------------------------------|
D|------h---------------------------------h-----------------------3----------|
A|----3^5-----3/5---------3-------------3^5-------3/5---------3--------------|
E|--0-------X-------0-3-5---5-3-5-----0---------X-------0-3-5---5------------|

e|---------------------------------------------------------------------------|
B|---------------------------------------------------------------------------|
G|-----------------------------------------------------P-P-P-----------------|
D|------h---------------------------------h-------h--6^5^3^0-----------------|
A|----3^5-----3/5---------3-------------3^5-----3^5-----------5-3-2----------|
E|--0-------X-------0-3-5---5-3-5-----0-----X-X---------------5-3-2----------|


Heavy Distortion

0:13 - 0:25
e|---------------------------------------------------------------------------|
B|---------------------------------------------------------------------------|
G|---------------------------------------------------------------------------|
D|------h---------------------------------h-----------------------3----------|
A|----3^5-----3/5---------3-------------3^5-------3/5---------3--------------|
E|--0-------X-------0-3-5---5-3-5-----0---------X-------0-3-5---5------------|

e|---------------------------------------------------------------------------|
B|---------------------------------------------------------------------------|
G|---------------------------------------------------------------------------|
D|------h---------------------------------h-------h--6-5-3-------------------|
A|----3^5-----3/5---------3-------------3^5-----3^5--------5-3---------------|
E|--0-------X-------0-3-5---5-3-5-----0-----X-X----------------6-5-3---------|


0:25 - 0:36 (repeat this section twice)              ~       ~
e|---------------------------------------------------------------------------|
B|---------------------------------------------------------------------------|
G|---------------------------------------------------------------------------|
D|--------------------h------------------------------------------------------|
A|--5-----------5---3^5--------5---5-----------------+-------+---------------|
E|----0-------X---X----------X---X---0---------X-X-6-5-----5-3---------------|
                                                     Pinch   Pinch

 
0:36 - 0:50
e|---------------------------------------------------------------------------|
B|----------6----------------------------------------------------------------|
G|----------5---5-------7---9---10--12---------------------------------------|
D|--5---5---3---5-------7---10--10--12---------------------------------------|
A|--3---2-------3-------5---7---8---10--------5-3---------3/5----------------|
E|------------------------------------------------6-5-3-0--------------------|


0:50 - 1:13 (repeat this section 4 times)
e|---------------------------------------------------------------------------|
B|---------------------------------------------------------------------------|
G|---------------------------------------------------------------------------|
D|------h---------------------------------h-----------------------3----------|
A|----3^5-----3/5---------3-------------3^5-------3/5---------3--------------|
E|--0-------X-------0-3-5---5-3-5-----0---------X-------0-3-5---5------------|


1:13 - 1:19                                                               ~
e|---------------------------------------------------------------------------|
B|-6-6-6-6-6-6-6-6-8-8-8-8-8-8-8-8-13-13-13-13-13-13-13-13-13-13-13-13-------|
G|-5-5-5-5-5-5-5-5-5-5-5-5-5-5-5-5-12-12-12-12-12-12-12-12-12-12-12-12-------|
D|-3-3-3-3-3-3-3-3-3-3-3-3-3-3-3-3-10-10-10-10-10-10-10-10-10-10-10-10-------|
A|----------------------------------------------------------------------3-+--|
E|------------------------------------------------------------------------5--|
                                                                          Pinch

1:19 - 1:28
e|---------------------------------------------------------------------------|
B|---------------------------------------------------------------------------|
G|---------------------------------------------------------------------------|
D|----------------------------p---------------------------------5----0-------|
A|--------------------------3^0-3/5-----------------------------3----0-------|
E|--0-0-0-0-----0-0-0-0---0-------------0-0-0-0-----0-0-0-0---0------0-------|
 pm . . . .     . . . .


1:28 - 1:31
e|----------------------------|
B|----------------------------|
G|----------------------------|
D|----------------------------|
A|----------------+-------+---|
E|--0-0-----X-X-6-5-----5-3---|
 pm . .           pinch   pinch


1:31 - 1:37
e|---------------------------------------------------------------------------|
B|---------------------------------------------------------------------------|
G|---------------------------------------------------------------------------|
D|--------------------h------------------------------------------------------|
A|--5-----------5---3^5--------5---5-----------------+-------+---------------|
E|----0-------X---X----------X---X---0---------X-X-6-5-----5-3---------------|
                                                     Pinch   Pinch


1:37 - 1:50
e|---------------------------------------------------------------------------|
B|----------6----------------------------------------------------------------|
G|----------5---5-------7---9---10--12---------------------------------------|
D|--5---5---3---5-------7---10--10--12---------------------------------------|
A|--3---2-------3-------5---7---8---10--------5-3---------3/5----------------|
E|------------------------------------------------6-5-3-0--------------------|


1:50 - 2:02
e|---------------------------------------------------------------------------|
B|---------------------------------------------------------------------------|
G|---------------------------------------------------------------------------|
D|------h---------------------------------h-----------------------3----------|
A|----3^5-----3/5---------3-------------3^5-------3/5---------3--------------|
E|--0-------X-------0-3-5---5-3-5-----0---------X-------0-3-5---5------------|

e|---------------------------------------------------------------------------|
B|---------------------------------------------------------------------------|
G|---------------------------------------------------------------------------|
D|------h---------------------------------h----------------------------------|
A|----3^5-----3/5---------3-------------3^5-------3/5--5-3-------p-3/5-------|
E|--0-------X-------0-3-5---5-3-5-----0---------X----------6-5-3^0-----------|


2:02 - 2:14 (repeat this section 2 times)
e|---------------------------------------------------------------------------|
B|---------------------------------------------------------------------------|
G|---------------------------------------------------------------------------|
D|------h---------------------------------h-----------------------3----------|
A|----3^5-----3/5---------3-------------3^5-------3/5---------3--------------|
E|--0-------X-------0-3-5---5-3-5-----0---------X-------0-3-5---5------------|


2:14 - 2:20                                                               
e|---------------------------------------------------------------------------|
B|-6-6-6-6-6-6-6-6-8-8-8-8-8-8-8-8-13-13-13-13-13-13-13-13-13-13-13-13-------|
G|-5-5-5-5-5-5-5-5-5-5-5-5-5-5-5-5-12-12-12-12-12-12-12-12-12-12-12-12-------|
D|-3-3-3-3-3-3-3-3-3-3-3-3-3-3-3-3-10-10-10-10-10-10-10-10-10-10-10-10-------|
A|------------------------------------------------------------------------3--|
E|------------------------------------------------------------------------3--|


2:20 - 2:26
e|---------------------------------------------------------------------------|
B|---------------------------------------------------------------------------|
G|---------------------------------------------------------------------------|
D|----------------------------p---------------------------------5------------|
A|--0-0-0-0-----0-0-0-0-----3^0-3/5-----0-0-0-0-----0-0-0-0-----3------------|
E|--0-0-0-0-----0-0-0-0---0-------------0-0-0-0-----0-0-0-0---0--------------|
 pm . . . .     . . . .   .


2:26 - 2:50 (chords over solo)
e|---------------------------------------------------|
B|---------------------------------------------------|
G|--7----10---5----5--5------7----10---5-------------|
D|--5----8----3----3--5------5----8----3-------------|
A|--5----8----3----3--3-3----5----8----3----1-1-1----|
E|--5----8----3---------3----5----8----3----1-1-1----|
 

2:50 - 3:02 
e|---------------------------------------------------------------------------|
B|---------------------------------------------------------------------------|
G|--------------7-5-------5--------------------------------------------------|
D|------------------6-5-3-------------------------h-----------------------3--|
A|--0--2--3-----------------0-0-0---------------3^5-------3/5---------3------|
E|--0--2--3-----------------0-0-0-------------0---------X-------0-3-5---5----|
 

3:02 - 3:20 (pepeat this section 3 times)
e|---------------------------------------------------------------------------|
B|---------------------------------------------------------------------------|
G|---------------------------------------------------------------------------|
D|------h---------------------------------h-----------------------3----------|
A|----3^5-----3/5---------3-------------3^5-------3/5---------3--------------|
E|--0-------X-------0-3-5---5-3-5-----0---------X-------0-3-5---5------------|


3:20 - 3:25                                                               
e|---------------------------------------------------------------------------|
B|-6-6-6-6-6-6-6-6-8-8-8-8-8-8-8-8-13-13-13-13-13-13-13-13-13-13-13-13-------|
G|-5-5-5-5-5-5-5-5-5-5-5-5-5-5-5-5-12-12-12-12-12-12-12-12-12-12-12-12-------|
D|-3-3-3-3-3-3-3-3-3-3-3-3-3-3-3-3-10-10-10-10-10-10-10-10-10-10-10-10-------|
A|------------------------------------------------------------------------3--|
E|------------------------------------------------------------------------3--|


3:25 - 3:48 
e|----------------------------------------------------------------------------|
B|------------------------------------------6---------------------------------|
G|-----------4------------------------------5-------5-----5-------------------|
D|-----------4-------------6-5-3------------3-------5--5--5-------------------|
A|--0--2--3--2----0--2--3--------5-3----------------3--5--3-------0-0-----0-0-|
E|--0--2--3-------0--2--3------------6-5-3-------------5----------0-0-----0-0-|


| /  slide up
| \  slide down
| h  hammer-on
| p  pull-off
| ~  vibrato
| +  harmonic
| x  Mute note
===============================================================================
Tap to rate this tab
# A B C D E F G H I J K L M N O P Q R S T U V W X Y Z