Turbo Fruits - Mamas Mad Cos I Fried My Brain tab

turbo fruits (http://turbofruits.com/)
mama's mad 'cos i fried my brain
echo kid


INTRO
e---------------------------------------0----|
B---------------------------------------0----|
G------9-----9-----6-----6-----1-----1--9----|
D----6-----6-----6-----6-----1-----1----6----|
A---7-7---7-7---7-7---7-7---2-2---2-2---7----|
E--0-----0-----9-----9-----4-----4------0----|

VERSE (mama's mad 'cos i fried my brain...)
e--------------------------------------------------------------0----|
B--------------------------------------------------------------0----|
G------9---------9---------6---------6---------1---------1-----9----|
D----6--6-6----6--6-6----6--6-6----6--6-6----1--1-1----1--1-1--6----|
A---7-7--7----7-7--7----7-7--7----7-7--7----2-2--2----2-2--2---7----|
E--0---------0---------9---------9---------4---------4---------0----|

CHORUS (whistles)
e---------------------------------------------------|
B---------------------------------------------------|
G---------------------------------------------------|
D--------------------------------------------4------|
A--7--7-7-7-4----7--7-7-7-4----7--7-7-7-4--7---7-4--|
E---------------------------------------------------|

e---------------------------------------------------|
B---------------------------------------------------|
G---------------------------------------------------|
D-----------------------------------------4---------|
A--4--4-4-4-7----4--4-4-4-7----4--4-4-4-7---7-4-----|
E---------------------------------------------------|

e---------------------------------------------------------------|
B---------------------------------------------------------------|
G---------------------------------------------------------------|
D---------------------------------------------------------------|
A---------------------------------------------------------------|
E--4--4-4-4-7----4--4-4-4-7----4--4-4-4-7--4--2--0~~--7--0~~----|

BRIDGE (guess i'm just losing my touch...)

i just play arpeggios on the barre chords here...
   A  B  E  E*
e--5--7--7--0--|
B--5--7--9--0--|
G--6--8--9--9--|
D--7--9--9--6--|
A--7--9--7--7--|
E--5--7--0--0--|

A                       B
guess im just losing my touch
A                       E     B
guess im just losing my game
E                       A
guess im just losing my touch
E                       B
guess im just losing my game
          A
but thats okay
         E*
thats okay

(just hit that last chord twice full on)


OUTRO

e-----------------------------------------------------|
B--------------------------------------------7---7----|
G--9--9-9-9-6----9--9-9-9-6----9--9-9-9-6--9---9------|
D-----------------------------------------------------|
A-----------------------------------------------------|
E-----------------------------------------------------|

e---------------------------------------------9-------|
B--9--9-9-9-12----9--9-9-9-12----9--9-9-9-12----12-9--|
G-----------------------------------------------------|
D-----------------------------------------------------|
A-----------------------------------------------------|
E-----------------------------------------------------|

e-----------------------------------------------------|
B--9--9-9-9-12----9--9-9-9-12----9--9-9-9-12--9--7----|
G-----------------------------------------------------|
D-----------------------------------------------------|
A-----------------------------------------------------|
E-----------------------------------------------------|

e-------------------------7---------------------------7--|
B-----------7---------------------------7----------------|
G--9--9-9-9------9--9-9-9------9--9-9-9------9--9-9-9----|
D--------------------------------------------------------|
A--------------------------------------------------------|
E--------------------------------------------------------|

STRUCTURE
INTRO
VERSEx2
CHORUSx2
VERSEx2
CHORUSx2
BRIDGE
VERSEx2
OUTROx2

on the second time you play the outro, keep playing that last measure over and over til 
the end.
Tap to rate this tab
 
# A B C D E F G H I J K L M N O P Q R S T U V W X Y Z