Song name
# A B C D E F G H I J K L M N O P Q R S T U V W X Y Z

Turbo - Jaki Byl Ten Dzien tab

Chords:

       Dm        Bm        C         Am
E||----1----|----1----|----0----|----0----|
B||----3----|----3----|----1----|----1----|
G||----2----|----3----|----0----|----2----|
D||----0----|----3----|----2----|----2----|
A||---------|----1----|----3----|----0----|
E||---------|---------|---------|---------|


       F         G         A
E||----1----|----3----|----0----|
B||----1----|----3----|----2----|
G||----2----|----0----|----2----|
D||----3----|----0----|----2----|
A||----3----|----2----|----0----|
E||----1----|----3----|---------|



Verse:

        Dm        Bm              C     Am
E||-----1----------1--------|-----0-----0----0-0-1-0-----|
B||--------3----------3-----|--------1--1------------3-1-|
G||----------------------3--|-----------2----------------|
D||--0----------------------|-----------2----------------|
A||-----------1-------------|--3--------0----------------|
E||-------------------------|----------------------------|


        Bm         F                 G       A
E||-----1----------1--------|---------3-3-1--0---------|-----||
B||--------3----------1-----|-------3--------2----2r---|-----||
G||----------------------2--|-----0----------2---------|--2--||
D||-------------------------|----------------2---------|-----||
A||--1----------------------|----------------0---------|-----||
E||-----------1-------------|--3-----------------------|-----||


Chorus:

Dm  Bm  C  Am
Bm  F   G  A



 Dm   Bm    C        Am
Půzno juz ...,
 Bm       F            G           A
sen podchodzi...
 Dm       Bm    C         Am
Nadchodzi czas...
 Bm          F         G              A
gdy kolejny...


 Dm           Bm
Jaki byl ten dzien?
  C           Am
Co darowal...
 Bm                 F         G            A
Czy mnie...
 Dm           Bm
Jaki byl...
  C                Am
Czy cos...
 Bm             F        G         A
Czy byl...
Tap to rate this tab
# A B C D E F G H I J K L M N O P Q R S T U V W X Y Z