Song name
# A B C D E F G H I J K L M N O P Q R S T U V W X Y Z

Turbo - Dorosle Dzieci tab

Intro:
                                x3
E:|------------------------------|
H:|-------8-----8-----8-----7----|
G:|-----5-----5-----5-----5--5---|
D:|---7-----7-----7-----7-----7--|
A:|------------------------------|
E:|-5----------------------------|

The 4 time :
                   A5      G5  F
E:|----------------------------0-| 
H:|-------8-----8--------------0-| 
G:|-----5-----5----------------2-| 
D:|---7-----7-----7-7-7-7-7-5--3-| 
A:|---------------7-7-7-7-7-5--3-|
E:|-5-------------5-5-5-5-5-3--1-|

Pre chorus and chorus :
    a   G F a F G
E:|----------------0-0-|
H:|----------------0-0-|
G:|----------------0-0-|
D:|-7-7-5-3-2-3-5------|
A:|-7-7-5-3-2-3-5------|
E:|-5-5-3-1-0-1-3------|

Chorus : 
       a         G            F
E:|----0-----0------0-----0------0-----0---|
H:|------0-----0------0-----0------0-----0-|
G:|----------------------------------------|
D:|----------------------------------------|
A:|-0------0-------------------------------|
E:|--------------3------3-----1------1-----|
Tap to rate this tab
 
# A B C D E F G H I J K L M N O P Q R S T U V W X Y Z