Song name
# A B C D E F G H I J K L M N O P Q R S T U V W X Y Z

Turbonegro - Denim Demon tab

Help us improve GuitareTab! Take a short survey!
OK, here's the best TRBNGR song ever which rocks like hell.

Title:  Denim Demon
Album:  Ass Cobra
Artist: Turbonegro/Stierkampf/TRBNGR
Year:   1995
This was their first single.

normal tuning

Intro:
  a a a  a
:-----------|
:-----------|
:-9-9-10-10-|   repeat this 
:-7-7-7--7--|    16 times
:-----------|
:-----------|

after the first eight times the 2nd guitar plays this:
  A               F           D
:-------------------------------------| \
:-------------------------------------|  \
:-------------------------------------|   \
:-7-7-7-7-7-7-7-7-10-10-10-10-7-7-7-7-|   / 2X
:-7-7-7-7-7-7-7-7-8--8--8--8--5-5-5-5-|  /
:-5-5-5-5-5-5-5-5-8--8--8--8--5-5-5-5-| /


Verse(both guitars):
  A       G       F           G
:---------------------------------|
:---------------------------------|
:---------------------------------|
:-7-7-7-7-5-5-5-5-3-3-3-3-3-3-5-5-|   this is played 4 times
:-7-7-7-7-5-5-5-5-3-3-3-3-3-3-5-5-|
:-5-5-5-5-3-3-3-3-1-1-1-1-1-1-3-3-|

Prechorus:
  D    F    D    F    G
:---------------------------|
:---------------------------|
:---------------------12----|
:-7~---10~--7~---10~--12----|  ~=let it ring
:-5~---8~---5~---8~---10----|
:-5~---8~---5~---8~---10----|

Chorus:
  A       G       F           G
:---------------------------------|
:---------------------------------|
:---------------------------------|
:-7-7-7-7-5-5-5-5-3-3-3-3-3-3-5-5-|    this is played 4 times
:-7-7-7-7-5-5-5-5-3-3-3-3-3-3-5-5-|
:-5-5-5-5-3-3-3-3-1-1-1-1-1-1-3-3-|

Outro:
  A               F           D
:-----------------------------------------| \
:-----------------------------------------|  \
:-----------------------------------------|   \
:-7-7-7-7-7-7-7-7-10-10-10-10-7-7-7-7--7~-|   / 2X  ~=let it ring
:-7-7-7-7-7-7-7-7-8--8--8--8--5-5-5-5--7~-|  /
:-5-5-5-5-5-5-5-5-8--8--8--8--5-5-5-5--5~-| /


order: intro-verse-prechorus-intro(the part with both guitars twice)-verse-prechorus-chorus-outro

HAVE FUN. TURBOJUGEND LKR TIRSCHENREUTH: Deathpunk forever!
Related for Denim Demon tab