Song name
# A B C D E F G H I J K L M N O P Q R S T U V W X Y Z

Turbonegro - Locked Down tab

Help us improve GuitareTab! Take a short survey!
-------------------------------------------------------------------------------
			     LOCKED DOWN - Turbonegro ;-)
-------------------------------------------------------------------------------
Tabbed by: peaceman_16
Email:     zocker.16@web.de

Tuning: normal

verse, intro etc are the same chords, but sometimes palm-muted or anything, you can hear that:

e|-----------------------------------------------------------------|
B|-------------------------11--11----------------------------------|
G|--------7--7------10--10-10--10-10---------5--5------------------|
D|---7--7-7--7-7----10--10-8---8--10----5--5-5--5-5---5-7-7-7-7----|
A|---7--7-5--5-7----8---8--8---8--8-----5--5-3--3-5---5-7-7-7-7----|
E|---5--5-5--5-5------------------------3--3-3--3-3---3-5-5-5-5----|


chorus:

e|-------------------------------------|
B|-------------------------------------|
G|-----------5-5-5-5-------------------|
D|---3-3-3-3-5-5-5-5-5-5-5-5-7-7-------|
A|---3-3-3-3-3-3-3-3-5-5-5-5-7-7-5-5---|
E|---1-1-1-1-3-3-3-3-3-3-3-3-5-5-3-3---|

brigde or solo (pm)
e|----------------------------------------------------------------------|
B|----------------------------------------------------------------------|
G|----------------------------------------------------------------------|
D|-----------------------------------3x---------------------------------|
A|--5-5-5-5-5-5-5-5-7-7-7-7-7-7-7-7-----5-5-5-5-5-5-5-5-3-3-3-3-3-3-3-3-|
E|--3-3-3-3-3-3-3-3-5-5-5-5-5-5-5-5-----3-3-3-3-3-3-3-3-1-1-1-1-1-1-1-1-|

well that's about it. 
Related for Locked Down tab