Song name
# A B C D E F G H I J K L M N O P Q R S T U V W X Y Z

Turbonegro - Good Head tab

-------------------------------------------------------------------------------
			     GOOD HEAD - Turbonegro
-------------------------------------------------------------------------------
it's only the first half... and it's wrong in most parts, too, but you can 
improvise when you use this as a pattern and it sounds wonderful.

Tuning: EADGBe (standard)

/ bend up
\ bend down
~ vibrato
h hammer on
p pull off

e|-------------------------------------------------------------------------|
B|---------------------------------------------------------------5~5~5~----|
G|------------------------------------------2~---4/6--4--2h4p2---5~5~5~----|
D|--------------0--2-0-------------2~-2~-2~--------------------------------|
A|-0-2-0-2--0-2--------0h2---0-2-0-----------------------------------------|
E|-------------------------------------------------------------------------|

e|------------------------------------------------------------------|
B|-----------10~----10~---10~---10------12~-12~-12~-12~-12~---------|
G|--9/11---9-----9~-----9-----9----9~-------------------------------|
D|------------------------------------------------------------------|
A|------------------------------------------------------------------|
E|------------------------------------------------------------------|

e|-----------------10/12\10------------------10/12\10--------10-9-7-------------------------------|
B|--12-10-12-10---------------12-10-12-10--------------12-10--------10-8-7------------------------|
G|--------------11------------------------11-------------------------------10-9-7-10-9-7--10/12-12|
D|------------------------------------------------------------------------------------------------|
A|------------------------------------------------------------------------------------------------|
E|------------------------------------------------------------------------------------------------|

it sounds cool, but not exactly as euroboy plays it.
have fun anyway!
Tap to rate this tab
# A B C D E F G H I J K L M N O P Q R S T U V W X Y Z