Guitaretab - guitar tabs
Song name
# A B C D E F G H I J K L M N O P Q R S T U V W X Y Z

Turbonegro - Destroy All Monsters tab

Intro (after drums and bass comes in)

|----------------------|
|----------------------|
|----------------------|  Repeat X1
|--------------7-------|
|---7B----7----5-------|
|----------------------|

|----------------------------------------------------------|
|----------------------------------------------------------|
|--10-10-10-10-10-10-10-10-9-9-9-9-9-9-9-9-7-7-7-7-7-7-7-7-|
|--10-10-10-10-10-10-10-10-9-9-9-9-9-9-9-9-7-7-7-7-7-7-7-7-|  Repeat x1
|---8--8--8--8--8--8--8--8-7-7-7-7-7-7-7-7-5-5-5-5-5-5-5-5-|
|----------------------------------------------------------|

|--------------|
|--------------|
|4-4-4-4-4-----| Repeat as needed (dont know the exact amount of times)
|4-4-4-4-4--5--|
|2-2-2-2-2--5--|
|-----------3--|
[ Tab from: http://www.guitaretab.com/t/turbonegro/111384.html ]
Verse
|----------------------------------------------------------|
|----------------------------------------------------------|
|--10-10-10-10-10-10-10-10-9-9-9-9-9-9-9-9-7-7-7-7-7-7-7-7-|
|--10-10-10-10-10-10-10-10-9-9-9-9-9-9-9-9-7-7-7-7-7-7-7-7-|  Repeat x1
|---8--8--8--8--8--8--8--8-7-7-7-7-7-7-7-7-5-5-5-5-5-5-5-5-|
|----------------------------------------------------------|

|--------------|
|--------------|
|4-4-4-4-4-----| Repeat x4
|4-4-4-4-4--5--|
|2-2-2-2-2--5--|
|-----------3--|

Verse
|----------------------------------------------------------|
|----------------------------------------------------------|
|--10-10-10-10-10-10-10-10-9-9-9-9-9-9-9-9-7-7-7-7-7-7-7-7-|
|--10-10-10-10-10-10-10-10-9-9-9-9-9-9-9-9-7-7-7-7-7-7-7-7-|  Repeat x1
|---8--8--8--8--8--8--8--8-7-7-7-7-7-7-7-7-5-5-5-5-5-5-5-5-|
|----------------------------------------------------------|

Chorus
|------------------------------------------------------------------|
|------------------------------------------------------------------|
|------------------------------------------------------------------| 
|-7-7-7-7-7-7-7-7-9-9-9-9-9-9-9-9-5-5-5-5-5-5-5-5-5-5-5-5-5-5-5-5--| Repeatx1
|-7-7-7-7-7-7-7-7-9-9-9-9-9-9-9-9-5-5-5-5-5-5-5-5-5-5-5-5-5-5-5-5--|
|-5-5-5-5-5-5-5-5-7-7-7-7-7-7-7-7-3-3-3-3-3-3-3-3-3-3-3-3-3-3-3-3--|

Then just repeat the WHOLE thing, from the 7 bend part. 

Thats it. Any questions or comments my youtube accounts turbojugend41493 

Have fun!
Related for Destroy All Monsters tab
Advertisement will be closed in 10 seconds