Song name
# A B C D E F G H I J K L M N O P Q R S T U V W X Y Z

Turbonegro - Armed And Fairly Well-equipped tab

Help us improve GuitareTab! Take a short survey!
Tab: Armed and Fairly Well-Equipped
Artist: Turbonegro
Year: (about) 1992

Tuning: EADGBe (standard)

intro:

|-------------------------------------------------|
|-------------------------------------------------|
|-------------------------------------------------|  repeat this 3 times
|-------------------------15-15-15-14-14-14-------|
|-12-12-12-15-15-15-12-12-------------------15-15-|
|-------------------------------------------------|

|-------------------------------------------------|
|-------------------------------------------------|
|-------------------------------------------------|
|-17-17-17-15-15-15-14-14-15-15-15-14-14-14-------|
|-------------------------------------------15-15-|
|-------------------------------------------------|

verse

|---------------------------------------------------|
|---------------------------------------------------|
|-------------5-5-5-5-5--10-10-10-10-10-------------|
|--7-7-7-7-7--5-5-5-5-5--10-10-10-10-10--2-2-2-2-2--|
|--7-7-7-7-7--3-3-3-3-3--8--8--8--8--8---2-2-2-2-2--|
|--5-5-5-5-5--3-3-3-3-3--8--8--8--8--8---0-0-0-0-0--|

chorus

|--------------------------------------------------------|
|--------------------------------------------------------|
|-------------10-10-10-10-10-------------10-10-10-10-10--|
|--7-7-7-7-7--10-10-10-10-10--7-7-7-7-7--10-10-10-10-10--|
|--7-7-7-7-7--8--8--8--8--8---5-5-5-5-5--8--8--8--8--8---|
|--5-5-5-5-5--8--8--8--8--8---5-5-5-5-5--8--8--8--8--8---|

lead guitar outro

|----------------------------------------------------------|
|-------------------------------------------8--------------|
|---9---10-9-10---9---10-9-10---9---10-9-10---10-9-10-9-7--|
|-7---7---------7---7---------7---7------------------------|
|----------------------------------------------------------|
|----------------------------------------------------------|
|----------------------------------------------------------|
Related for Armed And Fairly Well-equipped tab