Guitaretab - guitar tabs
Song name
# A B C D E F G H I J K L M N O P Q R S T U V W X Y Z

Turbonegro - Everybody Loves A Chubby Dude tab

Turbonegro
Everybody loves a chubby dude
Retox (2007)

I'm sure it's right.

Tuning: Drop D


intro/one part of the verse:

e|-------------|
B|-------------|
G|-8-8-8-8-6-9-|
D|-8-8-8-8-6-9-|    <- I don't know how often this is played
A|-6-6-6-6-4-7-|
D|-------------|

verse(every two times of it the part above is played)

e|------------|
B|------------|
G|----7----9--|
D|-9--7-7--9--|     <- it's easy to listen how often this is played
A|-9--5-7--7--|
D|-9----7-----|


prechorus:

e|----------|
B|----------|
G|----------|
D|-6---8----|
A|-6---8----|
D|-6---8----|

chorus: 

e|--------------------------------------------------------|
B|--------------------------------------------------------|
G|-------------------------4-4-4-4-4--6-6-6/8-8-8-8-8-8-8-|  now I'm sure:
D|-1-1-1-1-1--3/4-4-4-4-4--4-4-4-4-4--6-6-6/8-8-8-8-8-8-8-|  this is played
A|-1-1-1-1-1--3/4-4-4-4-4--2-2-2-2-2--4-4-4/6-6-6-6-6-6-6-|  twice
D|-1-1-1-1-1--3/4-4-4-4-4---------------------------------|


Solo:
[ Tab from: http://www.guitaretab.com/t/turbonegro/112801.html ]
e|---------------------------------------------------------|
B|------------9---------9--------------4p6-----------------|
G|--6b8-6h8p6---8b9-8-6---8b9-8-6--3b5-----5b6b5b6b5b6b5b6-|
D|---------------------------------------------------------|
A|---------------------------------------------------------|
D|---------------------------------------------------------|

e|---------------------------------------------------------|
B|-----------------8-8-6-6--9b10b9---9b10b9----------------|
G|---------6h8-----8-8-6-----------8--------8-8--8h10p8----|
D|-----6h8-----6h8-----------------------------------------|
A|-6h8-----------------------------------------------------|
D|---------------------------------------------------------|

e|---------------------------------------------------------|
B|-9-8-8-9-8-8-----------7-6-6-7-6-6----------4b6-4-4-6-4--|
G|------------------8h10------------------6h8--------------|
D|-------------8h10-------------------6h8------------------|
A|---------------------------------------------------------|
D|---------------------------------------------------------|

e|-11h13p11-9----11-11-13-14b16-13-9-11~-------------------|
B|------------11-------------------------------------------|
G|---------------------------------------------------------|
D|---------------------------------------------------------|
A|---------------------------------------------------------|
D|---------------------------------------------------------|

bridge(quite softly):

e|---------|
B|---------|
G|-6-8-6-8-|
D|-6-8-6-8-|
A|-4-6-4-6-|
D|---------|
Related for Everybody Loves A Chubby Dude tab
Advertisement will be closed in 10 seconds