Song name
# A B C D E F G H I J K L M N O P Q R S T U V W X Y Z

Turbonegro - Sailorman tab

#----------------------------------PLEASE NOTE---------------------------------#
#This file is the author's own work and represents their interpretation of the #
#song. You may only use this file for private study, scholarship, or research. #
#------------------------------------------------------------------------------#

SAILORMAN
As recorded by Turbonegro
(From the 1996 Album ASS COBRA)

Transcribed by Gene Westbye/Vinnie The Sailorman
	

Words and Music by Turbonegro
Arranged by Gene Westbye/Vinnie The Sailorman

A5/E
0 7 7 9 x x
	
E5
x 7 9 9 x x
	
C5
x 3 5 5 x x
	
D5
x 5 7 7 x x

Gtr I (Eb Ab Db Gb Bb Eb) - 'Pål Pot Pamparius'
Gtr II (Eb Ab Db Gb Bb Eb) - 'Rune Rebellion'

 Intro
  Q=152
  E5                                    C5                D5
 4/4
  Gtr I
  E E  E  E  E E E E    E  E  E E E E E E   E E E E E E E E   E E E E E E E E
|--------------------|--------------------|-----------------|------------------|
|-----10-10-10-8-----|-10-10-10-8---------|-----6-6-6-5-----|-----8---8-7------|
|--------------------|--------------------|-----------------|------------------|
|-9-9--9--9--9-9-9-9-|--9--9--9-9-9-9-9-5-|-5-5-5-5-5-5-5-7-|-7-7-7-7-7-7-7-7--|
|-7-7--7--7--7-7-7-7-|--7--7--7-7-7-7-7-3-|-3-3-3-3-3-3-3-5-|-5-5-5-5-5-5-5-5--|
|--------------------|--------------------|-----------------|------------------|


  E5                                    C5
  Gtr II
  W                    +W
  |                     |
  /                     /

  E E  E  E  E E E E    E  E  E E E E E E
|--------------------|--------------------|
|-----10-10-10-8-----|-10-10-10-8---------|
|--------------------|--------------------|
|-9-9--9--9--9-9-9-9-|--9--9--9-9-9-9-9-5-|
|-7-7--7--7--7-7-7-7-|--7--7--7-7-7-7-7-3-|
|--------------------|--------------------|


                 D5
  +W                 +W
   |                  |
   /                  /

   E E E E E E E E    E E E E E E E E
|------------------|------------------|
|------6-6-6-5-----|------8---8-7-----|
|------------------|------------------|
|--5-5-5-5-5-5-5-7-|--7-7-7-7-7-7-7-7-|
|--3-3-3-3-3-3-3-5-|--5-5-5-5-5-5-5-5-|
|------------------|------------------|


   Verse 1
    E5                                    C5
    E E  E  E  E E E E    E  E  E E E E E E
    | |  |  |  | | | |    |  |  | | | | | |
    / /  /  /  / / / /    /  /  / / / / / /

    Gtr I
    E E  E  E  E E E E    E  E  E E E E E E
||---------------------|--------------------|
||o-----10-10-10-8-----|-10-10-10-8---------|
||---------------------|--------------------|
||--9-9--9--9--9-9-9-9-|--9--9--9-9-9-9-9-5-|
||o-7-7--7--7--7-7-7-7-|--7--7--7-7-7-7-7-3-|
||---------------------|--------------------|


                D5
  E E E E E E E E   E E E E E E E E
  | | | | | | | |   | | | | | | | |
  / / / / / / / /   / / / / / / / /

  E E E E E E E E   E E E E E E E E   4x
|-----------------|-------------------||
|-----6-6-6-5-----|-----8---8-7------o||
|-----------------|-------------------||
|-5-5-5-5-5-5-5-7-|-7-7-7-7-7-7-7-7---||
|-3-3-3-3-3-3-3-5-|-5-5-5-5-5-5-5-5--o||
|-----------------|-------------------||


 Chorus 1
  B5      C5B5A5                  E5
  Gtrs I, II
  Q  Q  E E E E   Q  Q  E E E E   E E E E E E E E   E E E E E E E E
|---------------|---------------|-----------------|-----------------|
|---------------|---------------|-----------------|-----------------|
|---------------|---------------|-----------------|-----------------|
|-4--4--4-5-4-2-|-2--2--2-2-2-2-|-2-2-2-2-2-2-2-2-|-2-2-2-2-2-2-2-2-|
|-2--2--2-3-2-0-|-0--0--0-0-0-0-|-2-2-2-2-2-2-2-2-|-2-2-2-2-2-2-2-2-|
|---------------|---------------|-0-0-0-0-0-0-0-0-|-0-0-0-0-0-0-0-0-|


  B5      C5B5A5                  G5                E5        B5 C5
  Q  Q  E E E E   Q  Q  E E E E   E E E E E E E E   E E E E E Q  E
|---------------|---------------|-----------------|----------------|
|---------------|---------------|-----------------|----------------|
|---------------|---------------|-----------------|----------------|
|-4--4--4-5-4-2-|-2--2--2-2-2-2-|-5-5-5-5-3-3-3-3-|-2-2-2-2-2-4--5-|
|-2--2--2-3-2-0-|-0--0--0-0-0-0-|-5-5-5-5-3-3-3-3-|-2-2-2-2-2-2--3-|
|---------------|---------------|-3-3-3-3-1-1-1-1-|-0-0-0-0-0------|


                    E5        B5 C5                    E5        B5 C5
  E E E E E E E E   E E E E E Q  E   E E E E E E E E   E E E E E Q  E
|-----------------|----------------|-----------------|----------------|
|-----------------|----------------|-----------------|----------------|
|-----------------|----------------|-----------------|----------------|
|-5-5-5-5-5-5-5-5-|-2-2-2-2-2-4--5-|-5-5-5-5-5-5-5-5-|-2-2-2-2-2-4--5-|
|-3-3-3-3-3-3-3-3-|-2-2-2-2-2-2--3-|-3-3-3-3-3-3-3-3-|-2-2-2-2-2-2--3-|
|-----------------|-0-0-0-0-0------|-----------------|-0-0-0-0-0------|


                    G5      F5        E5
  E E E E E E E E   E E E E E E E E   E E E E E E E E   E E E E E E E E
|-----------------|-----------------|-----------------|-----------------|
|-----------------|-----------------|-----------------|-----------------|
|-----------------|-----------------|-----------------|-----------------|
|-5-5-5-5-5-5-5-5-|-5-5-5-5-3-3-3-3-|-2-2-2-2-2-2-2-2-|-2-2-2-2-2-2-2-2-|
|-3-3-3-3-3-3-3-3-|-5-5-5-5-3-3-3-3-|-2-2-2-2-2-2-2-2-|-2-2-2-2-2-2-2-2-|
|-----------------|-3-3-3-3-1-1-1-1-|-0-0-0-0-0-0-0-0-|-0-0-0-0-0-0-0-0-|


 Pre-Verse
  E E E E E E E E   E E E E E E E E
|-----------------|-----------------|
|-----------------|-----------------|
|-----------------|-----------------|
|-2-2-2-2-2-2-2-2-|-2-2-2-2-2-2-2-2-|
|-2-2-2-2-2-2-2-2-|-2-2-2-2-2-2-2-2-|
|-0-0-0-0-0-0-0-0-|-0-0-0-0-0-0-0-0-|


   Verse 2
    E5                                    C5
    Gtr II
    E E  E  E  E E E E    E  E  E E E E E E
    | |  |  |  | | | |    |  |  | | | | | |
    / /  /  /  / / / /    /  /  / / / / / /

    E E  E  E  E E E E    E  E  E E E E E E
||---------------------|--------------------|
||o-----10-10-10-8-----|-10-10-10-8---------|
||---------------------|--------------------|
||--9-9--9--9--9-9-9-9-|--9--9--9-9-9-9-9-5-|
||o-7-7--7--7--7-7-7-7-|--7--7--7-7-7-7-7-3-|
||---------------------|--------------------|


                D5
  E E E E E E E E   E E E E E E E E
  | | | | | | | |   | | | | | | | |
  / / / / / / / /   / / / / / / / /

  E E E E E E E E   E E E E E E E E   4x
|-----------------|-------------------||
|-----6-6-6-5-----|-----8---8-7------o||
|-----------------|-------------------||
|-5-5-5-5-5-5-5-7-|-7-7-7-7-7-7-7-7---||
|-3-3-3-3-3-3-3-5-|-5-5-5-5-5-5-5-5--o||
|-----------------|-------------------||


 Chorus 2
  B5      C5B5A5                  E5
  Q  Q  E E E E   Q  Q  E E E E   E E E E E E E E   E E E E E E E E
|---------------|---------------|-----------------|-----------------|
|---------------|---------------|-----------------|-----------------|
|---------------|---------------|-----------------|-----------------|
|-4--4--4-5-4-2-|-2--2--2-2-2-2-|-2-2-2-2-2-2-2-2-|-2-2-2-2-2-2-2-2-|
|-2--2--2-3-2-0-|-0--0--0-0-0-0-|-2-2-2-2-2-2-2-2-|-2-2-2-2-2-2-2-2-|
|---------------|---------------|-0-0-0-0-0-0-0-0-|-0-0-0-0-0-0-0-0-|


  B5      C5B5A5                  G5      F5        E5        B5 C5
  Q  Q  E E E E   Q  Q  E E E E   E E E E E E E E   E E E E E Q  E
|---------------|---------------|-----------------|----------------|
|---------------|---------------|-----------------|----------------|
|---------------|---------------|-----------------|----------------|
|-4--4--4-5-4-2-|-2--2--2-2-2-2-|-5-5-5-5-3-3-3-3-|-2-2-2-2-2-4--5-|
|-2--2--2-3-2-0-|-0--0--0-0-0-0-|-5-5-5-5-3-3-3-3-|-2-2-2-2-2-2--3-|
|---------------|---------------|-3-3-3-3-1-1-1-1-|-0-0-0-0-0------|


                    E5        B5 C5                      E5        B5 C5
  E E E E E E E E   E E E E E Q  E     E E E E E E E E   E E E E E Q  E
|-----------------|----------------||------------------|-----------------||
|-----------------|----------------||o-----------------|----------------o||
|-----------------|----------------||------------------|-----------------||
|-5-5-5-5-5-5-5-5-|-2-2-2-2-2-4--5-||--5-5-5-5-5-5-5-5-|-2-2-2-2-2-4--5--||
|-3-3-3-3-3-3-3-3-|-2-2-2-2-2-2--3-||o-3-3-3-3-3-3-3-3-|-2-2-2-2-2-2--3-o||
|-----------------|-0-0-0-0-0------||------------------|-0-0-0-0-0-------||


 Outro
                    G5      F5        E5
                                                  <
                                                  ~~~
  E E E E E E E E   E E E E E E E E   W          +W
|-----------------|-----------------|----------|-[7]----*|
|-----------------|-----------------|----------|--------*|
|-----------------|-----------------|----------|-[4]----*|
|-5-5-5-5-5-5-5-5-|-5-5-5-5-3-3-3-3-|-2--------|-(2)----*|
|-3-3-3-3-3-3-3-3-|-5-5-5-5-3-3-3-3-|-2--------|-(2)----*|
|-----------------|-3-3-3-3-1-1-1-1-|-0--------|-(0)----*|
                                                  W



Duration Legend
---------------
W - whole; H - half; Q - quarter; E - 8th; S - 16th; T - 32nd; X - 64th; a - acciaccatura
+ - note tied to previous; . - note dotted; .. - note double dotted
Uncapitalized letters represent notes that are staccato (1/2 duration)
Irregular groupings are notated above the duration line
Duration letters will always appear directly above the note/fret number it represents the
duration for.  Duration letters with no fret number below them represent rests.  Multi-
bar rests are notated in the form Wxn, where n is the number of bars to rest for.  Low
melody durations appear below the staff

Tablature Legend
----------------
 h   - hammer-on
 p   - pull-off
 b   - bend
 pb  - pre-bend
 r   - bend release (if no number after the r, then release immediately)
 /\  - slide into or out of (from/to "nowhere")
 s   - legato slide
 S   - shift slide
 - natural harmonic
[n]  - artificial harmonic
n(n) - tapped harmonic
 ~   - vibrato
 tr  - trill
 T   - tap
 TP  - trem. picking
 PM  - palm muting
\n/  - tremolo bar dip; n = amount to dip
 \n  - tremolo bar down
 n/  - tremolo bar up
/n\  - tremolo bar inverted dip
 =   - hold bend; also acts as connecting device for hammers/pulls
 <> - volume swell (louder/softer)
 x   - on rhythm slash represents muted slash
 o   - on rhythm slash represents single note slash

Misc Legend
-----------
 |  - bar
||  - double bar
||o - repeat start
o|| - repeat end
*|  - double bar (ending)
 :  - bar (freetime)
 $  - Segno
 &  - Coda
Tempo markers -  = BPM(8/16=s8/s16), where s8 = swing 8ths, s16 = swing 16ths

Tap to rate this tab
# A B C D E F G H I J K L M N O P Q R S T U V W X Y Z