Guitaretab - guitar tabs
Song name
# A B C D E F G H I J K L M N O P Q R S T U V W X Y Z

Turbonegro - Fuck The World tab

Intro:
e|----------------------------------|----------------------------------|
B|----------------------------------|---------------------------5-3-0--|
G|----------------------0-----4-2-0-|-------4/5\4--------0-------------|
D|----2---0-2---2-----4-----2-------|---2---------------4-----2--------|
A|------2---------2/5-----3---------|-----2---------2/5-----3----------|
E|-0----------0---------------------|-0--------------------------------|

e|----------------------------------|
B|----------------------------------|
G|-------------------0-----4-2-0----|
D|-----2-4-0-2-----4-----2----------|
A|---2---------2/5-----3------------|
E|-0--------------------------------|

Intro 2
Guitar 1
e|--------------|--------------|--------------|
B|--------------|--------------|--------------|
G|-------9~-----|-------9~-----|-------9~-----|
D|-------9~-----|-------9~-----|-------9~-----|
A|-------7~-----|-------7~-----|-------7~-----|
E|--0-----------|--0-----------|--0-----------|

e|----------------------|
B|----------------------|
G|-----9~--7-7-7-5-5-5--|
D|-----9~--7-7-7-5-5-5--|
A|-----7~--5-5-5-3-3-3--|
E|--0-------------------|


Guitar 2
e|-12-11-12----------------------------------------------------|
B|----------12-13-12-13----10b12-4-3-4-5-4-3-4-5-7-8-7-5-3-5-0-|
G|----------------------12-------------------------------------|
D|-------------------------------------------------------------|
A|-------------------------------------------------------------|
E|-------------------------------------------------------------|

e|-------------------|
B|-------------------|
G|-------------------|
D|-7-5-4-5-4-2-0-2---|
A|-----------------2-|
E|-------------------|


Verse
e|-------|
B|-------|
G|-------|
D|-------|
A|-7b~~~-|
E|-------|

e|---------------|
B|---------------|
G|---------------|
D|-7777777777777-|
A|-7777777777777-|
E|-5555555555555-|
(------P.M.------)

Pre Chorus
Guitar 1
e|------------------------------------------------------------------------|
B|------------------------------------------------------------------------|
G|------------------------------------------------------------------------|
D|-5--5-5-5-5--5-5-5-5--5-5-5-5--7--9--9-9-9-9--9-9-9--9-----9--9--9----9-|
A|-3--3-3-3-3--3-3-3-3--3-3-3-3--5--7--7-7-7-7--7-7-7--7-----7--7--7----7-|
E|-3--3-3-3-3--3-3-3-3--3-3-3-3--5--7--7-7-7-7--7-7-7--7-----7--7--7----7-|

Guitar 2
e|------------------------------------------------------------------------|
B|----------------------------------------------------12-10----10-15b17---|
G|----------------------------------------------------------12------------|
D|------------------------------------------------------------------------|
A|------------------------------------------------------------------------|
E|------------------------------------------------------------------------|

Both guitars
e|---------------------------------------------------|
B|---------------------------------------------------|
G|---------------------------------------------------|
D|-7--5--5-5-5-5--5-5-5-5--5-5-5-5--5--4--4--4--4----|
A|-5--5--5-5-5-5--5-5-5-5--5-5-5-5--5--2--2--2--2----|
E|-5--3--3-3-3-3--3-3-3-3--3-3-3-3--3--2--2--2--2----|

Chorus
Guitar 1
e|--------------------------|
B|--------------------------|
G|---9--9-9-9--7-7-7--5-5-5-|
D|---9--9-9-9--7-7-7--5-5-5-|
A|---7--7-7-7--5-5-5--3-3-3-|
E|-0------------------------|

Guitar 2
e|------------------------------|
B|------------------------------|
G|-------7--99b11r9-7----7--9--|
D|--7/9----------------9--------|
A|------------------------------|
E|------------------------------|

e|--12b14--b1412b14r12-10-12--|
B|-----------------------------|
G|-----------------------------|
D|-----------------------------|
A|-----------------------------|
E|-----------------------------|


Verse
e|------------------------|
B|--[12]------------------|
G|--------[12]------------|
D|--------------[7]-------|
A|-------------------[7]--|
E|------------------------|
[ Tab from: http://www.guitaretab.com/t/turbonegro/122144.html ]
e|---------------------------------------------------|
B|--15----15----15----15----15----15----15----15-----|
G|-----16----16----16----16----16----16----16----16--|
D|---------------------------------------------------|
A|---------------------------------------------------|
E|---------------------------------------------------|

Pre Chorus
Guitar 1
e|------------------------------------------------------------------------|
B|------------------------------------------------------------------------|
G|------------------------------------------------------------------------|
D|-5--5-5-5-5--5-5-5-5--5-5-5-5--7--9--9-9-9-9--9-9-9--9-----9--9--9----9-|
A|-3--3-3-3-3--3-3-3-3--3-3-3-3--5--7--7-7-7-7--7-7-7--7-----7--7--7----7-|
E|-3--3-3-3-3--3-3-3-3--3-3-3-3--5--7--7-7-7-7--7-7-7--7-----7--7--7----7-|

Guitar 2
e|------------------------|
B|------------------------|
G|--12-14b16-14-12b14-12--|
D|------------------------|
A|------------------------|
E|------------------------|

Guitar 1
e|------------------------------------------------------------------------|
B|------------------------------------------------------------------------|
G|------------------------------------------------------------------------|
D|-5--5-5-5-5--5-5-5-5--5-5-5-5--7--9--9-9-9-9--9-9-9--9-----9--9--9----9-|
A|-3--3-3-3-3--3-3-3-3--3-3-3-3--5--7--7-7-7-7--7-7-7--7-----7--7--7----7-|
E|-3--3-3-3-3--3-3-3-3--3-3-3-3--5--7--7-7-7-7--7-7-7--7-----7--7--7----7-|

Guitar 2
e|--12--14--15--14--12p14h12h10p12--|
B|----------------------------------|
G|----------------------------------|
D|----------------------------------|
A|----------------------------------|
E|----------------------------------|

Guitar 1
e|------------------------------------------------------------------------|
B|------------------------------------------------------------------------|
G|------------------------------------------------------------------------|
D|-5--5-5-5-5--5-5-5-5--5-5-5-5--7--9--9-9-9-9--9-9-9--9-----9--9--9----9-|
A|-3--3-3-3-3--3-3-3-3--3-3-3-3--5--7--7-7-7-7--7-7-7--7-----7--7--7----7-|
E|-3--3-3-3-3--3-3-3-3--3-3-3-3--5--7--7-7-7-7--7-7-7--7-----7--7--7----7-|

Guitar 2
e|------------------------|
B|------------------------|
G|--14b16r14-12-----------|
D|--------------14-12-14--|
A|------------------------|
E|------------------------|

Both Guitars
e|------------------------------------------------------------------------|
B|------------------------------------------------------------------------|
G|------------------------------------------------------------------------|
D|-5--5-5-5-5--5-5-5-5--5-5-5-5--7--9--9-9-9-9--9-9-9--9-----9--9--9----9-|
A|-3--3-3-3-3--3-3-3-3--3-3-3-3--5--7--7-7-7-7--7-7-7--7-----7--7--7----7-|
E|-3--3-3-3-3--3-3-3-3--3-3-3-3--5--7--7-7-7-7--7-7-7--7-----7--7--7----7-|

Both guitars
e|---------------------------------------------------|
B|---------------------------------------------------|
G|---------------------------------------------------|
D|-7--5--5-5-5-5--5-5-5-5--5-5-5-5--5--4--4--4--4----|
A|-5--5--5-5-5-5--5-5-5-5--5-5-5-5--5--2--2--2--2----|
E|-5--3--3-3-3-3--3-3-3-3--3-3-3-3--3--2--2--2--2----|

Chorus
Guitar 1
e|--------------------------|
B|--------------------------|
G|---9--9-9-9--7-7-7--5-5-5-|
D|---9--9-9-9--7-7-7--5-5-5-|
A|---7--7-7-7--5-5-5--3-3-3-|
E|-0------------------------|

Guitar 2
e|------------------------------|
B|------------------------8-----|
G|-------7--99b11r9-7-------9--|
D|--7/9----------------9--------|
A|------------------------------|
E|------------------------------|


e|--12b14--b1412b14r12-10-12--|
B|-----------------------------|
G|-----------------------------|
D|-----------------------------|
A|-----------------------------|
E|-----------------------------|

Outro
Both Guitars
e|------------------------------|
B|-------10------10-------------|
G|--9b11----9b11----11r9r7---9--|
D|-------------------------9----|
A|------------------------------|
E|------------------------------|

e|--12b14--b1412b14r12-10-12--|
B|-----------------------------|
G|-----------------------------|
D|-----------------------------|
A|-----------------------------|
E|-----------------------------|

e|-10h12p10h12p10h12-|
B|-------------------|
G|-------------------| repeat until end
D|-------------------|
A|-------------------|
E|-------------------|
Related for Fuck The World tab