Song name
# A B C D E F G H I J K L M N O P Q R S T U V W X Y Z

Turbonegro - Time Bomb tab

Turbonegro - Time Bomb
Album: Never Is Forever (re-release version)
Year: 1994

tuning: probably normal

   verse:  
e|-----------------------------------|
B|-----------------------------------|
G|------------------9-9-9-9-9-9-9----|
D|--7-7-7-7-7-7-7-7-9-9-9-9-9-9-9-8--|
A|--7-7-7-7-7-7-7-7-7-7-7-7-7-7-7-8--|
E|--5-5-5-5-5-5-5-5-7-7-7-7-7-7-7-6--|

   chorus:
e|-------------------------------------|
B|-------------------------------------|
G|-------------------------------------|
D|--7-7-7-7-7-7-7-7-8-8-8-8-10-10-8-8--|
A|--7-7-7-7-7-7-7-7-8-8-8-8-10-10-8-8--|
E|--5-5-5-5-5-5-5-5-6-6-6-6-8--8--6-6--|


   ending:             
e|-----------------------------------|
B|-----------------------------------|
G|----------5-5-5-5-4-4-4-4----------|
D|--2-2-2-2-5-5-5-5-4-4-4-4-7-7-5-4--|
A|--2-2-2-2-3-3-3-3-2-2-2-2-7-7-5-4--|
E|--0-0-0-0-----------------5-5-3-2--|
Tap to rate this tab
# A B C D E F G H I J K L M N O P Q R S T U V W X Y Z