Song name
# A B C D E F G H I J K L M N O P Q R S T U V W X Y Z

Turbonegro - Erection tab

this is the whole song, u just keep repeating it.
my AIM is thesk8ingwombat@yahoo.com
my e-mail is thesk8ingwombat@yahoo.com
i have also tabbed it seems uncertain, by 311


e|-------------------------------------------------------------------|
B|-------------------------------------------------------------------|
G|-------------------------------------------------------------------|
D|-------------------------------------------------------------------|
A|--7-7-7---------8--8--8--8--8--8--8--8--10-10-10-10-8--10-8----7---|
E|--------5-5-5-5----------------------------------------------------|


e|-------------------------------------------------------------------|
B|-------------------------------------------------------------------|
G|--9-9-9---------10-10-10-10-10-10-10-10-12-12-12-12-10-12-10---9---|
D|--9-9-9-7-7-7-7-10-10-10-10-10-10-10-10-12-12-12-12-10-12-10---9---|
A|--7-7-7-7-7-7-7-8--8--8--8--8--8--8--8--10-10-10-10-8--10-8----7---|
E|--------5-5-5-5----------------------------------------------------|
Tap to rate this tab
 
# A B C D E F G H I J K L M N O P Q R S T U V W X Y Z