Song name
# A B C D E F G H I J K L M N O P Q R S T U V W X Y Z

Turbonegro - Stay Free tab

Song: Stay Free
By: Turbonegro
Transcribed: Euroboy (NOrWAY)
---------------------------------------------


  
   
 

Main riff

|3-2--------x--x--x--x--x--x--|
|3-2--------x--x--x--x--x--x--|
|3-2--------x--9--8--5--7--7--|
|5-4--------2--9--9--5--7--7--|
|5-4--------2--7--7--3--5--5--|
|---12^-0---0--0--0--3--5--5--|

^slide (slide from the 12th fret down to 1st and then release)

---------------------------------------------

Bridge

|---8--7--10--|
|---8--7--10--|
|---9--8--11--|
|--10--9--12--|
|--10--9--12--|
|---8--7--10--|

---------------------------------------------

Refrain

|--6--5---8--7--10--|
|--6--5---8--7--10--|
|--7--6---9--8--11--|
|--8--7--10--9--12--|
|--8--7--10--9--12--|
|--6--5---8--7--10--|





Tap to rate this tab
 
# A B C D E F G H I J K L M N O P Q R S T U V W X Y Z