Song name
# A B C D E F G H I J K L M N O P Q R S T U V W X Y Z

Turbonegro - What Is Rock tab

Help us improve GuitareTab! Take a short survey!
PM= Palm mute
\ = Slide up to
/ =Slide down to


This is my fist tab submitted. I tried to listen to the notes only by ear, I didn't have 
type of help with this. I know it's probably wrong but it's close enough and damnit I 
to play this song!!


--------------------------------------------------------------|
--------------------------------------------------------------|
--------------------------------------------------------------|
--------------------------------------------------------------|
--------------------------------------------------------------|
-2-2-2-2-2-2-2-2-2-2-2-2-2-2-2-2-\5-5-5-5-5-5-5-5/4-4-4-4-4-4-|
 |___________________________PM_____________________________|

---------------------------------------------------------------------|
---------------------------------------------------------------------|
---------------------------------------------------------------------|
-----------------------------5-6-6-6-6-6--6-4-4-4-4--6-3-3-3-3-3-----|
-3/4--4---4-4-4-4-4-4-4-4----5-6-6-6-6-6--6-4-4-4-4--6-3-3-3-3-3-----|
-1/2--2---2-2-2-2-2-2-2-2--------------------------------------------|
         |____PM_________|
Related for What Is Rock tab