Song name
# A B C D E F G H I J K L M N O P Q R S T U V W X Y Z

Turbonegro - Dont Say Motherfucker Motherfucker tab

There are some rythem parts + lead guitar parts
because there is an second guitar through the song,
so i tried to make both guitars in 1 guitar tab.
Her m tab and hope u understand the tab i wrote,
I'll try to make an cover and placing de link to Youtube.
Till than have fun ^^


Tunnning both guitars: Standard (eBGDAE)
Guitar 1 LEAD: Distorbtion
Guitar 2 Rythem: Clean + high Treble

B(value) = bend untill it sounds like (value)
R = slightly let bending go to original state
/ = slide down to fred value
\ = slide up to fred value
h = hammer on

Intro + Verse: play this 2 times
Both guitars 2nd guitar comes after 1st played this riff ones
e|--------------------------------|
B|--------------------------------|
G|------7777-----4444-222---------|
D|--555-7777-222-4444-222-222222--|
A|--555-5555-222-2222-000-222222--|
E|--333------000----------000000--|


Chorus:
e|-------------------------------------------------0-------------------|
B|-------------------------------------------------0-------------------|
G|----5------------7---------------5555------7777----------------------|
D|--5-5-55555555-7-7-77777777-3333-5555-5555-7777-2--------------------|
A|--5-3-55555555-7-5-77777777-3333-3333-5555-5555-2---|Plactrum Slide--|
E|--3---33333333-5---55555555-1111------3333------0---|Plactrum Slide--|


interlude: play riff 2 times
Guitar 2: Rythem
e|--------------------------------|
B|--------------------------------|
G|------7777-----4444-222---------|
D|--555-7777-222-4444-222-222222--|
A|--555-5555-222-2222-000-222222--|
E|--333------000----------000000--|

Guitar 1: after verse riff played ones this part comes in
e|-----------------------------------------------------------|
B|--18B(20)-13h15-1515-15B(17)R-10h12-1212-121212-15B(17)/6--|
G|-----------------------------------------------------------|
D|-----------------------------------------------------------|
A|-----------------------------------------------------------|
E|-----------------------------------------------------------|


verse: play this 2 times
e|--------------------------------|
B|--------------------------------|
G|------7777-----4444-222---------|
D|--555-7777-222-4444-222-222222--|
A|--555-5555-222-2222-000-222222--|
E|--333------000----------000000--|


Chorus:
e|-------------------------------------------------0-------------------|
B|-------------------------------------------------0-------------------|
G|----5------------7---------------5555------7777----------------------|
D|--5-5-55555555-7-7-77777777-3333-5555-5555-7777-2--------------------|
A|--5-3-55555555-7-5-77777777-3333-3333-5555-5555-2---|Plactrum Slide--|
E|--3---33333333-5---55555555-1111------3333------0---|Plactrum Slide--|


Breakdown:
Guitar 1: lead (there's mid sound there and tried by ear so i guess this is it)
	       (every storke bend it at the same time, or waaahm sounds)
e|-------|------------------------------------------------------------------|
B|-------|------------------------------------------------------------------|
G|-------|------------------------------------------------------------------|
D|--9/10-|--2b2b2b2b\3b3b3b3b\5b5b5b5b/2b2b2b2b-----------------------------|
A|--9/10-|--------------------------------------5b5b5b5b/7b7b7b7\2b2b2b2b---|
E|--7/ 8-|------------------------------------------------------------------|

Guitar 2: Rythem
e|----------------------------------|
B|----------------------------------|
G|--555555444444555555554444444444--|
D|--555555444444555555554444444444--|
A|--333333222222333333332222222222--|
E|----------------------------------|


verse: play this 2 times
e|--------------------------------|
B|--------------------------------|
G|------7777-----4444-222---------|
D|--555-7777-222-4444-222-222222--|
A|--555-5555-222-2222-000-222222--|
E|--333------000----------000000--|


Chorus:
e|-------------------------------------------------0-------------------|
B|-------------------------------------------------0-------------------|
G|----5------------7---------------5555------7777----------------------|
D|--5-5-55555555-7-7-77777777-3333-5555-5555-7777-2--------------------|
A|--5-3-55555555-7-5-77777777-3333-3333-5555-5555-2---|Plactrum Slide--|
E|--3---33333333-5---55555555-1111------3333------0---|Plactrum Slide--|


e|-------------------------------------------------|
B|-------------------------------------------------|
G|----5------------7---------------5555------7777--|
D|--5-5-55555555-7-7-77777777-3333-5555-5555-7777--|
A|--5-3-55555555-7-5-77777777-3333-3333-5555-5555--|
E|--3---33333333-5---55555555-1111------3333-------|


Outro
e|--------------------------------|
B|--------------------------------|
G|--------------------------------|
D|--7\14---7\16---7\14-7\16-7\17--|
A|--x\ x---x\ x---x\ x-x\ x-x\ x--|
E|--5\12---5\14---5\12-5\14-5\15--|

e|----------------------------------------------------------|
B|--18B(20)-13h15-1515-15B(17)R-10h12-1212-121212-15B(17)/--|
G|----------------------------------------------------------|
D|----------------------------------------------------------|
A|----------------------------------------------------------|
E|----------------------------------------------------------|
Tap to rate this tab
# A B C D E F G H I J K L M N O P Q R S T U V W X Y Z