Song name
# A B C D E F G H I J K L M N O P Q R S T U V W X Y Z

Turbonegro - Wipe It Till It Bleeds tab

                            Wipe it till it bleeds                              


                                                                      Turbonegro
Spur 1



      Q    Q    S S S S E  E     E  E  E  E  E  E  Q     
E||---------------------------|-------------------------|
B||---------------------------|-------------------------|
G||*------------9-9-9-9-9--9--|-----9-----9-----9--9----|
D||*--9----2----9-9-9-9-9--9--|-----9-----9-----9--9----|
A||---9----2----7-7-7-7-7--7--|--x--7--x--7--x--7--7----|
E||---7----0------------------|-------------------------|


  Q    Q    S S S S E  E     E  E  E  E  E  E  Q     4x
--------------------------|--------------------------||
--------------------------|--------------------------||
------------7-7-7-7-7--7--|-----9-----9-----9--9----*||
--9----5----7-7-7-7-7--7--|-----9-----9-----9--9----*||
--9----5----5-5-5-5-5--5--|--x--7--x--7--x--7--7-----||
--7----3------------------|--------------------------||


    Q    Q    E  E  E  E     E  E  Q    E  E  Q       Q    S S S S E  E  E  E   
--------------------------|------------------------|---------------------------|
--------------------------|------------------------|---------------------------|
*----------------------7--|--L--7--5----4--2--4----|-------9-9-9-9-9--9-----9--|
*--10----9----7--5--7--7--|--L--7--5----4--2--4----|--2----9-9-9-9-9--9-----9--|
---10----9----7--5--7--5--|--L--5--3----2--0--2----|--2----7-7-7-7-7--7--x--7--|
----8----7----5--3--5-----|------------------------|--0------------------------|


  E  E  E  E  H            Q    Q    E  E  E  E     E  E  Q    E  E  E  E   
-----------------------|-------------------------|-------------------------|
-----------------------|-------------------------|-------------------------|
-----9-----9--9--------|----------------------7--|--L--7--5----4--2--4-----|
-----9-----9--9--------|--10----9----7--5--7--7--|--L--7--5----4--2--4--7--|
--x--7--x--7--7--------|--10----9----7--5--7--5--|--L--5--3----2--0--2--7--|
-----------------------|---8----7----5--3--5-----|----------------------5--|


  E  E  E  E  E  E  E  E     E  E  E  E  E  E  E  E     
--------------------------|---------------------------||
--------------------------|---------------------------||
--------------------------|--------------------------*||
--L--7--7--7--7--7--7--7--|--9--9--9--9--9--9--9--9--*||
--L--7--7--7--7--7--7--7--|--9--9--9--9--9--9--9--9---||
--L--5--5--5--5--5--5--5--|--7--7--7--7--7--7--7--7---||


  Repeat Chorus & Verse 1 time                           
  E                                                      
-------------------------------|-----|-----|-----|-----||
-------------------------------|-----|-----|-----|-----||
-------------------------------|-----|-----|-----|-----||
-------------------------------|-----|-----|-----|-----||
-------------------------------|-----|-----|-----|-----||
--x----------------------------|-----|-----|-----|-----||




Duration Legend
---------------
W - whole
H - half
Q - quarter
E - 8th
S - 16th
T - 32nd
X - 64th
. - note dotted
|-n-|  - n-tuplets


Tablature Legend
----------------
L - tied note
x - dead note
g - grace note
(n) - ghost note
> - accentuded note
NH - natural harmonic
AH - artificial harmonic
TH - tapped harmonic
SH - semi harmonic
PH - pitch harmonic
h - hammer on
p - pull off
b - bend
br - bendRelease
pb - preBend
pbr - preBendRelease
brb - bendReleaseBend
\n/ - tremolo bar dip
\n - tremolo bar dive
-/n - tremolo bar Release up
/n\ - tremolo bar inverted dip
/n - tremolo bar return
-\n - tremolo bar Release down
S - shift slide
s - legato slide
/ -  slide into from below or out of upwards
\ -  slide into from above or out of downwards
~ - vibrato
W - wide vibrato
tr - trill
TP - tremolo picking
T - tapping
S - slap
P - pop
< - fade in
^ - brush up
v - brush down

Tap to rate this tab
# A B C D E F G H I J K L M N O P Q R S T U V W X Y Z